0
SECTION
2
HEADER
9
$EXTMIN
10
0
20
0
30
0
9
$EXTMAX
10
42000.000000
20
29700.000000
30
0
9
$LIMMIN
10
0
20
0
9
$LIMMAX
10
42000.000000
20
29700.000000
9
$INSBASE
10
0
20
0
30
0
9
$LTSCALE
40
100
0
ENDSEC
0
SECTION
2
TABLES
0
TABLE
2
LAYER
70
256
0
LAYER
2
_0-0_
70
0
62
4
6
CONTINUOUS
0
LAYER
2
_0-1_敷地図
70
0
62
3
6
CONTINUOUS
0
LAYER
2
_0-2_道路
70
0
62
7
6
CONTINUOUS
0
LAYER
2
_0-3_三斜
70
0
62
7
6
CONTINUOUS
0
LAYER
2
_0-4_外構
70
0
62
7
6
CONTINUOUS
0
LAYER
2
_0-5_外部部品
70
0
62
7
6
CONTINUOUS
0
LAYER
2
_0-6_隣接建物
70
0
62
7
6
CONTINUOUS
0
LAYER
2
_0-7_点景
70
0
62
7
6
CONTINUOUS
0
LAYER
2
_0-8_敷地雑線
70
0
62
7
6
CONTINUOUS
0
LAYER
2
_0-9_
70
0
62
2
6
CONTINUOUS
0
LAYER
2
_0-A_
70
0
62
4
6
CONTINUOUS
0
LAYER
2
_0-B_記号
70
0
62
7
6
CONTINUOUS
0
LAYER
2
_0-C_ハッチ
70
0
62
4
6
CONTINUOUS
0
LAYER
2
_0-D_寸法
70
0
62
7
6
CONTINUOUS
0
LAYER
2
_0-E_文字
70
0
62
7
6
CONTINUOUS
0
LAYER
2
_0-F_補助線
70
0
62
9
6
CONTINUOUS
0
LAYER
2
_1-0_通芯
70
0
62
4
6
CONTINUOUS
0
LAYER
2
_1-1_外周1階
70
0
62
3
6
CONTINUOUS
0
LAYER
2
_1-2_1階壁芯
70
0
62
7
6
CONTINUOUS
0
LAYER
2
_1-3_外周他
70
0
62
3
6
CONTINUOUS
0
LAYER
2
_1-4_屋根
70
0
62
7
6
CONTINUOUS
0
LAYER
2
_1-5_外周仕上
70
0
62
2
6
CONTINUOUS
0
LAYER
2
_1-6_外部要素
70
0
62
7
6
CONTINUOUS
0
LAYER
2
_1-7_屋根要素
70
0
62
7
6
CONTINUOUS
0
LAYER
2
_1-8_配置雑線
70
0
62
7
6
CONTINUOUS
0
LAYER
2
_1-9_
70
0
62
2
6
CONTINUOUS
0
LAYER
2
_1-A_
70
0
62
4
6
CONTINUOUS
0
LAYER
2
_1-B_記号
70
0
62
7
6
CONTINUOUS
0
LAYER
2
_1-C_ハッチ
70
0
62
4
6
CONTINUOUS
0
LAYER
2
_1-D_寸法
70
0
62
7
6
CONTINUOUS
0
LAYER
2
_1-E_文字
70
0
62
7
6
CONTINUOUS
0
LAYER
2
_1-F_補助線
70
0
62
9
6
CONTINUOUS
0
LAYER
2
_2-0_通芯
70
0
62
7
6
CONTINUOUS
0
LAYER
2
_2-1_壁芯
70
0
62
7
6
CONTINUOUS
0
LAYER
2
_2-2_柱
70
0
62
2
6
CONTINUOUS
0
LAYER
2
_2-3_仕上
70
0
62
7
6
CONTINUOUS
0
LAYER
2
_2-4_雑仕上
70
0
62
7
6
CONTINUOUS
0
LAYER
2
_2-5_建具
70
0
62
3
6
CONTINUOUS
0
LAYER
2
_2-6_設備
70
0
62
7
6
CONTINUOUS
0
LAYER
2
_2-7_家具
70
0
62
4
6
CONTINUOUS
0
LAYER
2
_2-8_雑線
70
0
62
4
6
CONTINUOUS
0
LAYER
2
_2-9_
70
0
62
2
6
CONTINUOUS
0
LAYER
2
_2-A_金物記号
70
0
62
3
6
CONTINUOUS
0
LAYER
2
_2-B_記号
70
0
62
7
6
CONTINUOUS
0
LAYER
2
_2-C_ハッチ
70
0
62
4
6
CONTINUOUS
0
LAYER
2
_2-D_寸法
70
0
62
7
6
CONTINUOUS
0
LAYER
2
_2-E_文字
70
0
62
7
6
CONTINUOUS
0
LAYER
2
_2-F_補助線
70
0
62
9
6
CONTINUOUS
0
LAYER
2
_3-0_通芯
70
0
62
4
6
CONTINUOUS
0
LAYER
2
_3-1_下地線
70
0
62
7
6
CONTINUOUS
0
LAYER
2
_3-2_耐力壁
70
0
62
6
6
CONTINUOUS
0
LAYER
2
_3-3_壁記号
70
0
62
7
6
CONTINUOUS
0
LAYER
2
_3-4_筋かい
70
0
62
2
6
CONTINUOUS
0
LAYER
2
_3-5_筋記号
70
0
62
7
6
CONTINUOUS
0
LAYER
2
_3-6_金物記号
70
0
62
3
6
CONTINUOUS
0
LAYER
2
_3-7_平面外部
70
0
62
7
6
CONTINUOUS
0
LAYER
2
_3-8_屋根伏
70
0
62
7
6
CONTINUOUS
0
LAYER
2
_3-9_重心記号
70
0
62
6
6
CONTINUOUS
0
LAYER
2
_3-A_加算領域
70
0
62
2
6
CONTINUOUS
0
LAYER
2
_3-B_記号
70
0
62
7
6
CONTINUOUS
0
LAYER
2
_3-C_ハッチ
70
0
62
4
6
CONTINUOUS
0
LAYER
2
_3-D_
70
0
62
7
6
CONTINUOUS
0
LAYER
2
_3-E_文字
70
0
62
7
6
CONTINUOUS
0
LAYER
2
_3-F_補助線
70
0
62
9
6
CONTINUOUS
0
LAYER
2
_4-0_立面通芯
70
0
62
4
6
CONTINUOUS
0
LAYER
2
_4-1_立面基準
70
0
62
7
6
CONTINUOUS
0
LAYER
2
_4-2_立面輪郭
70
0
62
3
6
CONTINUOUS
0
LAYER
2
_4-3_立面他
70
0
62
7
6
CONTINUOUS
0
LAYER
2
_4-4_立面雑線
70
0
62
7
6
CONTINUOUS
0
LAYER
2
_4-5_立面建具
70
0
62
3
6
CONTINUOUS
0
LAYER
2
_4-6_立面斜線
70
0
62
7
6
CONTINUOUS
0
LAYER
2
_4-7_
70
0
62
7
6
CONTINUOUS
0
LAYER
2
_4-8_立面GL
70
0
62
6
6
CONTINUOUS
0
LAYER
2
_4-9_
70
0
62
2
6
CONTINUOUS
0
LAYER
2
_4-A_
70
0
62
4
6
CONTINUOUS
0
LAYER
2
_4-B_記号
70
0
62
7
6
CONTINUOUS
0
LAYER
2
_4-C_ハッチ
70
0
62
4
6
CONTINUOUS
0
LAYER
2
_4-D_寸法
70
0
62
7
6
CONTINUOUS
0
LAYER
2
_4-E_文字
70
0
62
7
6
CONTINUOUS
0
LAYER
2
_4-F_補助線
70
0
62
9
6
CONTINUOUS
0
LAYER
2
_5-0_断面通芯
70
0
62
4
6
CONTINUOUS
0
LAYER
2
_5-1_断面基準
70
0
62
7
6
CONTINUOUS
0
LAYER
2
_5-2_断面
70
0
62
2
6
CONTINUOUS
0
LAYER
2
_5-3_外部要素
70
0
62
7
6
CONTINUOUS
0
LAYER
2
_5-4_断面雑線
70
0
62
7
6
CONTINUOUS
0
LAYER
2
_5-5_断面建具
70
0
62
7
6
CONTINUOUS
0
LAYER
2
_5-6_断面斜線
70
0
62
7
6
CONTINUOUS
0
LAYER
2
_5-7_採光斜線
70
0
62
3
6
CONTINUOUS
0
LAYER
2
_5-8_GLライン
70
0
62
6
6
CONTINUOUS
0
LAYER
2
_5-9_壁下地
70
0
62
2
6
CONTINUOUS
0
LAYER
2
_5-A_見える材
70
0
62
4
6
CONTINUOUS
0
LAYER
2
_5-B_記号
70
0
62
7
6
CONTINUOUS
0
LAYER
2
_5-C_ハッチ
70
0
62
4
6
CONTINUOUS
0
LAYER
2
_5-D_寸法
70
0
62
7
6
CONTINUOUS
0
LAYER
2
_5-E_文字
70
0
62
7
6
CONTINUOUS
0
LAYER
2
_5-F_補助線
70
0
62
9
6
CONTINUOUS
0
LAYER
2
_6-0_通芯
70
0
62
4
6
CONTINUOUS
0
LAYER
2
_6-1_壁芯
70
0
62
7
6
CONTINUOUS
0
LAYER
2
_6-2_立上り
70
0
62
2
6
CONTINUOUS
0
LAYER
2
_6-3_底盤
70
0
62
7
6
CONTINUOUS
0
LAYER
2
_6-4_換気口
70
0
62
3
6
CONTINUOUS
0
LAYER
2
_6-5_金物
70
0
62
3
6
CONTINUOUS
0
LAYER
2
_6-6_束
70
0
62
6
6
CONTINUOUS
0
LAYER
2
_6-7_高深基礎
70
0
62
7
6
CONTINUOUS
0
LAYER
2
_6-8_基礎雑線
70
0
62
7
6
CONTINUOUS
0
LAYER
2
_6-9_
70
0
62
7
6
CONTINUOUS
0
LAYER
2
_6-A_
70
0
62
7
6
CONTINUOUS
0
LAYER
2
_6-B_記号
70
0
62
7
6
CONTINUOUS
0
LAYER
2
_6-C_ハッチ
70
0
62
4
6
CONTINUOUS
0
LAYER
2
_6-D_寸法
70
0
62
7
6
CONTINUOUS
0
LAYER
2
_6-E_文字
70
0
62
7
6
CONTINUOUS
0
LAYER
2
_6-F_補助線
70
0
62
9
6
CONTINUOUS
0
LAYER
2
_7-0_土台
70
0
62
3
6
CONTINUOUS
0
LAYER
2
_7-1_火打材
70
0
62
7
6
CONTINUOUS
0
LAYER
2
_7-2_根太
70
0
62
4
6
CONTINUOUS
0
LAYER
2
_7-3_梁桁
70
0
62
3
6
CONTINUOUS
0
LAYER
2
_7-4_枕梁
70
0
62
2
6
CONTINUOUS
0
LAYER
2
_7-5_松丸太
70
0
62
3
6
CONTINUOUS
0
LAYER
2
_7-6_登り梁
70
0
62
3
6
CONTINUOUS
0
LAYER
2
_7-7_その他梁
70
0
62
2
6
CONTINUOUS
0
LAYER
2
_7-8_棟木
70
0
62
3
6
CONTINUOUS
0
LAYER
2
_7-9_母屋
70
0
62
7
6
CONTINUOUS
0
LAYER
2
_7-A_垂木
70
0
62
4
6
CONTINUOUS
0
LAYER
2
_7-B_継ぎ手
70
0
62
2
6
CONTINUOUS
0
LAYER
2
_7-C_小屋束
70
0
62
7
6
CONTINUOUS
0
LAYER
2
_7-D_層柱
70
0
62
7
6
CONTINUOUS
0
LAYER
2
_7-E_下層柱
70
0
62
7
6
CONTINUOUS
0
LAYER
2
_7-F_基準高外
70
0
62
3
6
CONTINUOUS
0
LAYER
2
_8-0_通芯
70
0
62
4
6
CONTINUOUS
0
LAYER
2
_8-1_壁芯
70
0
62
4
6
CONTINUOUS
0
LAYER
2
_8-2_柱
70
0
62
3
6
CONTINUOUS
0
LAYER
2
_8-3_仕上
70
0
62
7
6
CONTINUOUS
0
LAYER
2
_8-4_雑仕上
70
0
62
4
6
CONTINUOUS
0
LAYER
2
_8-5_建具
70
0
62
3
6
CONTINUOUS
0
LAYER
2
_8-6_設備
70
0
62
4
6
CONTINUOUS
0
LAYER
2
_8-7_家具
70
0
62
4
6
CONTINUOUS
0
LAYER
2
_8-8_雑線
70
0
62
4
6
CONTINUOUS
0
LAYER
2
_8-9_
70
0
62
2
6
CONTINUOUS
0
LAYER
2
_8-A_金物記号
70
0
62
3
6
CONTINUOUS
0
LAYER
2
_8-B_記号
70
0
62
7
6
CONTINUOUS
0
LAYER
2
_8-C_ハッチ
70
0
62
4
6
CONTINUOUS
0
LAYER
2
_8-D_寸法
70
0
62
7
6
CONTINUOUS
0
LAYER
2
_8-E_文字
70
0
62
7
6
CONTINUOUS
0
LAYER
2
_8-F_補助線
70
0
62
9
6
CONTINUOUS
0
LAYER
2
_9-0_展開1
70
0
62
7
6
CONTINUOUS
0
LAYER
2
_9-1_展開2
70
0
62
4
6
CONTINUOUS
0
LAYER
2
_9-2_
70
0
62
7
6
CONTINUOUS
0
LAYER
2
_9-3_建具1
70
0
62
7
6
CONTINUOUS
0
LAYER
2
_9-4_建具2
70
0
62
7
6
CONTINUOUS
0
LAYER
2
_9-5_
70
0
62
7
6
CONTINUOUS
0
LAYER
2
_9-6_天井１
70
0
62
7
6
CONTINUOUS
0
LAYER
2
_9-7_天井2
70
0
62
7
6
CONTINUOUS
0
LAYER
2
_9-8_
70
0
62
7
6
CONTINUOUS
0
LAYER
2
_9-9_
70
0
62
7
6
CONTINUOUS
0
LAYER
2
_9-A_
70
0
62
7
6
CONTINUOUS
0
LAYER
2
_9-B_記号
70
0
62
7
6
CONTINUOUS
0
LAYER
2
_9-C_ハッチ
70
0
62
4
6
CONTINUOUS
0
LAYER
2
_9-D_寸法
70
0
62
7
6
CONTINUOUS
0
LAYER
2
_9-E_文字
70
0
62
7
6
CONTINUOUS
0
LAYER
2
_9-F_補助線
70
0
62
9
6
CONTINUOUS
0
LAYER
2
_A-0_
70
0
62
4
6
CONTINUOUS
0
LAYER
2
_A-1_
70
0
62
7
6
CONTINUOUS
0
LAYER
2
_A-2_
70
0
62
3
6
CONTINUOUS
0
LAYER
2
_A-3_
70
0
62
2
6
CONTINUOUS
0
LAYER
2
_A-4_
70
0
62
7
6
CONTINUOUS
0
LAYER
2
_A-5_
70
0
62
3
6
CONTINUOUS
0
LAYER
2
_A-6_
70
0
62
7
6
CONTINUOUS
0
LAYER
2
_A-7_
70
0
62
3
6
CONTINUOUS
0
LAYER
2
_A-8_
70
0
62
7
6
CONTINUOUS
0
LAYER
2
_A-9_
70
0
62
2
6
CONTINUOUS
0
LAYER
2
_A-A_
70
0
62
3
6
CONTINUOUS
0
LAYER
2
_A-B_記号
70
0
62
7
6
CONTINUOUS
0
LAYER
2
_A-C_ハッチ
70
0
62
4
6
CONTINUOUS
0
LAYER
2
_A-D_寸法
70
0
62
7
6
CONTINUOUS
0
LAYER
2
_A-E_文字
70
0
62
7
6
CONTINUOUS
0
LAYER
2
_A-F_補助線
70
0
62
9
6
CONTINUOUS
0
LAYER
2
_B-0_通芯
70
0
62
4
6
CONTINUOUS
0
LAYER
2
_B-1_線
70
0
62
7
6
CONTINUOUS
0
LAYER
2
_B-2_柱束
70
0
62
3
6
CONTINUOUS
0
LAYER
2
_B-3_横架材
70
0
62
3
6
CONTINUOUS
0
LAYER
2
_B-4_基礎
70
0
62
7
6
CONTINUOUS
0
LAYER
2
_B-5_柱壁1
70
0
62
7
6
CONTINUOUS
0
LAYER
2
_B-6_柱壁2
70
0
62
3
6
CONTINUOUS
0
LAYER
2
_B-7_柱壁3
70
0
62
2
6
CONTINUOUS
0
LAYER
2
_B-8_耐力壁
70
0
62
7
6
CONTINUOUS
0
LAYER
2
_B-9_金物1
70
0
62
3
6
CONTINUOUS
0
LAYER
2
_B-A_金物2
70
0
62
3
6
CONTINUOUS
0
LAYER
2
_B-B_記号
70
0
62
7
6
CONTINUOUS
0
LAYER
2
_B-C_ハッチ
70
0
62
4
6
CONTINUOUS
0
LAYER
2
_B-D_寸法
70
0
62
7
6
CONTINUOUS
0
LAYER
2
_B-E_文字
70
0
62
7
6
CONTINUOUS
0
LAYER
2
_B-F_補助線
70
0
62
9
6
CONTINUOUS
0
LAYER
2
_C-0_軸組計算
70
0
62
7
6
CONTINUOUS
0
LAYER
2
_C-1_偏芯率
70
0
62
7
6
CONTINUOUS
0
LAYER
2
_C-2_採光計算
70
0
62
7
6
CONTINUOUS
0
LAYER
2
_C-3_金物計算
70
0
62
7
6
CONTINUOUS
0
LAYER
2
_C-4_ALV
70
0
62
7
6
CONTINUOUS
0
LAYER
2
_C-5_壁量計算
70
0
62
7
6
CONTINUOUS
0
LAYER
2
_C-6_
70
0
62
7
6
CONTINUOUS
0
LAYER
2
_C-7_
70
0
62
7
6
CONTINUOUS
0
LAYER
2
_C-8_
70
0
62
7
6
CONTINUOUS
0
LAYER
2
_C-9_
70
0
62
7
6
CONTINUOUS
0
LAYER
2
_C-A_
70
0
62
7
6
CONTINUOUS
0
LAYER
2
_C-B_
70
0
62
7
6
CONTINUOUS
0
LAYER
2
_C-C_
70
0
62
7
6
CONTINUOUS
0
LAYER
2
_C-D_
70
0
62
7
6
CONTINUOUS
0
LAYER
2
_C-E_文字
70
0
62
7
6
CONTINUOUS
0
LAYER
2
_C-F_補助線
70
0
62
9
6
CONTINUOUS
0
LAYER
2
_D-0_敷地面積
70
0
62
7
6
CONTINUOUS
0
LAYER
2
_D-1_建築面積
70
0
62
7
6
CONTINUOUS
0
LAYER
2
_D-2_床面積
70
0
62
7
6
CONTINUOUS
0
LAYER
2
_D-3_1_4面積
70
0
62
7
6
CONTINUOUS
0
LAYER
2
_D-4_見付面積
70
0
62
7
6
CONTINUOUS
0
LAYER
2
_D-5_採光面積分割
70
0
62
7
6
CONTINUOUS
0
LAYER
2
_D-6_
70
0
62
7
6
CONTINUOUS
0
LAYER
2
_D-7_
70
0
62
7
6
CONTINUOUS
0
LAYER
2
_D-8_敷地表
70
0
62
7
6
CONTINUOUS
0
LAYER
2
_D-9_建築表
70
0
62
7
6
CONTINUOUS
0
LAYER
2
_D-A_床面積表
70
0
62
7
6
CONTINUOUS
0
LAYER
2
_D-B_1_4表
70
0
62
7
6
CONTINUOUS
0
LAYER
2
_D-C_見付表
70
0
62
7
6
CONTINUOUS
0
LAYER
2
_D-D_
70
0
62
7
6
CONTINUOUS
0
LAYER
2
_D-E_文字
70
0
62
7
6
CONTINUOUS
0
LAYER
2
_D-F_補助線
70
0
62
9
6
CONTINUOUS
0
LAYER
2
_E-0_図面枠
70
0
62
7
6
CONTINUOUS
0
LAYER
2
_E-1_敷地凡例
70
0
62
7
6
CONTINUOUS
0
LAYER
2
_E-2_平面凡例
70
0
62
7
6
CONTINUOUS
0
LAYER
2
_E-3_立面凡例
70
0
62
7
6
CONTINUOUS
0
LAYER
2
_E-4_基礎凡例
70
0
62
7
6
CONTINUOUS
0
LAYER
2
_E-5_構造
70
0
62
7
6
CONTINUOUS
0
LAYER
2
_E-6_伏図凡例
70
0
62
7
6
CONTINUOUS
0
LAYER
2
_E-7_電気凡例
70
0
62
7
6
CONTINUOUS
0
LAYER
2
_E-8_給排水凡
70
0
62
7
6
CONTINUOUS
0
LAYER
2
_E-9_ガス
70
0
62
7
6
CONTINUOUS
0
LAYER
2
_E-A_
70
0
62
7
6
CONTINUOUS
0
LAYER
2
_E-B_
70
0
62
7
6
CONTINUOUS
0
LAYER
2
_E-C_
70
0
62
7
6
CONTINUOUS
0
LAYER
2
_E-D_
70
0
62
7
6
CONTINUOUS
0
LAYER
2
_E-E_文字
70
0
62
7
6
CONTINUOUS
0
LAYER
2
_E-F_補助線
70
0
62
9
6
CONTINUOUS
0
LAYER
2
_F-0_
70
0
62
7
6
CONTINUOUS
0
LAYER
2
_F-1_
70
0
62
7
6
CONTINUOUS
0
LAYER
2
_F-2_
70
0
62
7
6
CONTINUOUS
0
LAYER
2
_F-3_
70
0
62
7
6
CONTINUOUS
0
LAYER
2
_F-4_
70
0
62
7
6
CONTINUOUS
0
LAYER
2
_F-5_
70
0
62
7
6
CONTINUOUS
0
LAYER
2
_F-6_
70
0
62
7
6
CONTINUOUS
0
LAYER
2
_F-7_
70
0
62
7
6
CONTINUOUS
0
LAYER
2
_F-8_
70
0
62
7
6
CONTINUOUS
0
LAYER
2
_F-9_
70
0
62
7
6
CONTINUOUS
0
LAYER
2
_F-A_
70
0
62
7
6
CONTINUOUS
0
LAYER
2
_F-B_
70
0
62
7
6
CONTINUOUS
0
LAYER
2
_F-C_
70
0
62
7
6
CONTINUOUS
0
LAYER
2
_F-D_
70
0
62
7
6
CONTINUOUS
0
LAYER
2
_F-E_
70
0
62
7
6
CONTINUOUS
0
LAYER
2
_F-F_
70
0
62
7
6
CONTINUOUS
0
ENDTAB
  0
TABLE
  2
LTYPE
 70
     9
  0
LTYPE
  2
CONTINUOUS
 70
    64
  3
実線
 72
    65
 73
     0
 40
0.0
  0
LTYPE
  2
DASHED1
 70
    64
  3
--  --  --  --  --  --  --  --  
 72
    65
 73
     2
 40
2.5
 49
1.25
 49
-1.25
  0
LTYPE
  2
DASHED2
 70
    64
  3
----    ----    ----    ----    
 72
    65
 73
     2
 40
5.0
 49
2.5
 49
-2.5
  0
LTYPE
  2
DASHED3
 70
    64
  3
------  ------  ------  ------  
 72
    65
 73
     2
 40
5.0
 49
3.75
 49
-1.25
  0
LTYPE
  2
CENTER1
 70
    64
  3
----- - ----- - ----- - ----- - 
 72
    65
 73
     4
 40
10.0
 49
6.25
 49
-1.25
 49
1.25
 49
-1.25
  0
LTYPE
  2
CENTER2
 70
    64
  3
----------  --  ----------  --  
 72
    65
 73
     4
 40
20.0
 49
12.5
 49
-2.5
 49
2.5
 49
-2.5
  0
LTYPE
  2
PHANTOM1
 70
    64
  3
--- - - --- - - --- - - --- - - 
 72
    65
 73
     6
 40
10.0
 49
3.25
49
-1.25
 49
1.25
 49
-1.25
 49
1.25
 49
-1.25
  0
LTYPE
  2
PHANTOM2
 70
    64
  3
--------  -  -  --------  -  -  
 72
    65
 73
     6
 40
20.0
 49
10.0
 49
-2.5
 49
1.25
 49
-2.5
 49
1.25
 49
-2.5
  0
LTYPE
  2
DOT
 70
    64
  3
-   -   -   -   -   -   -   -   
 72
    65
 73
     2
 40
2.5
 49
0.625
 49
-1.875
  0
ENDTAB
  0
TABLE
  2
STYLE
 70
    1
  0
STYLE
  2
STANDARD
 70
    64
 40
0.0
 41
1.0
 42
0.0
 50
0.0
 71
     0
  3
TXT
  4
BIGFONT
  0
ENDTAB
0
ENDSEC
0
SECTION
2
BLOCKS
0
ENDSEC
0
SECTION
2
ENTITIES
0
LINE
8
_2-4_雑仕上
6
CONTINUOUS
62
7
10
-1892.500000
20
895.000000
30
0.000000
11
-2249.019238
21
895.000000
31
0.000000
39
0.000000
0
LINE
8
_2-4_雑仕上
6
CONTINUOUS
62
7
10
-2300.980762
20
895.000000
30
0.000000
11
-2657.500000
21
895.000000
31
0.000000
39
0.000000
0
LINE
8
_2-4_雑仕上
6
CONTINUOUS
62
7
10
-5532.500000
20
910.000000
30
0.000000
11
-6297.500000
21
910.000000
31
0.000000
39
0.000000
0
LINE
8
_2-4_雑仕上
6
CONTINUOUS
62
7
10
837.500000
20
-910.000000
30
0.000000
11
-837.500000
21
-910.000000
31
0.000000
39
0.000000
0
LINE
8
_3-C_ハッチ
6
CONTINUOUS
62
4
10
-8190.000000
20
2093.000000
30
0.000000
11
-8190.000000
21
637.000000
31
0.000000
39
0.000000
0
LINE
8
_3-C_ハッチ
6
CONTINUOUS
62
4
10
-8190.000000
20
637.000000
30
0.000000
11
-7371.000000
21
637.000000
31
0.000000
39
0.000000
0
LINE
8
_3-C_ハッチ
6
CONTINUOUS
62
4
10
-7371.000000
20
637.000000
30
0.000000
11
-7371.000000
21
970.000000
31
0.000000
39
0.000000
0
LINE
8
_3-C_ハッチ
6
CONTINUOUS
62
4
10
-7371.000000
20
1740.000000
30
0.000000
11
-7371.000000
21
1880.000000
31
0.000000
39
0.000000
0
LINE
8
_3-C_ハッチ
6
CONTINUOUS
62
4
10
-7395.000000
20
2093.000000
30
0.000000
11
-8190.000000
21
2093.000000
31
0.000000
39
0.000000
0
LINE
8
_3-7_平面外部
6
CONTINUOUS
62
7
10
-8190.000000
20
2093.000000
30
0.000000
11
-8190.000000
21
637.000000
31
0.000000
39
0.000000
0
LINE
8
_3-7_平面外部
6
CONTINUOUS
62
7
10
-8190.000000
20
637.000000
30
0.000000
11
-7371.000000
21
637.000000
31
0.000000
39
0.000000
0
LINE
8
_3-7_平面外部
6
CONTINUOUS
62
7
10
-7371.000000
20
637.000000
30
0.000000
11
-7371.000000
21
970.000000
31
0.000000
39
0.000000
0
LINE
8
_3-7_平面外部
6
CONTINUOUS
62
7
10
-7371.000000
20
1740.000000
30
0.000000
11
-7371.000000
21
1880.000000
31
0.000000
39
0.000000
0
LINE
8
_3-7_平面外部
6
CONTINUOUS
62
7
10
-7395.000000
20
2093.000000
30
0.000000
11
-8190.000000
21
2093.000000
31
0.000000
39
0.000000
0
LINE
8
_3-C_ハッチ
6
CONTINUOUS
62
4
10
-7371.000000
20
-4931.326300
30
0.000000
11
3640.000000
21
-4931.326300
31
0.000000
39
0.000000
0
LINE
8
_3-C_ハッチ
6
CONTINUOUS
62
4
10
3640.000000
20
-4931.326300
30
0.000000
11
3640.000000
21
4368.000000
31
0.000000
39
0.000000
0
LINE
8
_3-C_ハッチ
6
CONTINUOUS
62
4
10
3640.000000
20
4368.000000
30
0.000000
11
2548.000000
21
4368.000000
31
0.000000
39
0.000000
0
LINE
8
_3-C_ハッチ
6
CONTINUOUS
62
4
10
2548.000000
20
4368.000000
30
0.000000
11
2554.965909
21
3755.000000
31
0.000000
39
0.000000
0
LINE
8
_3-C_ハッチ
6
CONTINUOUS
62
4
10
-7261.000000
20
-3730.000000
30
0.000000
11
-7371.000000
21
-3731.000000
31
0.000000
39
0.000000
0
LINE
8
_3-C_ハッチ
6
CONTINUOUS
62
4
10
-7371.000000
20
-3731.000000
30
0.000000
11
-7371.000000
21
-4931.326300
31
0.000000
39
0.000000
0
LINE
8
_3-7_平面外部
6
CONTINUOUS
62
7
10
-7371.000000
20
-4931.326300
30
0.000000
11
3640.000000
21
-4931.326300
31
0.000000
39
0.000000
0
LINE
8
_3-7_平面外部
6
CONTINUOUS
62
7
10
3640.000000
20
-4931.326300
30
0.000000
11
3640.000000
21
4368.000000
31
0.000000
39
0.000000
0
LINE
8
_3-7_平面外部
6
CONTINUOUS
62
7
10
3640.000000
20
4368.000000
30
0.000000
11
2548.000000
21
4368.000000
31
0.000000
39
0.000000
0
LINE
8
_3-7_平面外部
6
CONTINUOUS
62
7
10
2548.000000
20
4368.000000
30
0.000000
11
2554.965909
21
3755.000000
31
0.000000
39
0.000000
0
LINE
8
_3-7_平面外部
6
CONTINUOUS
62
7
10
-7261.000000
20
-3730.000000
30
0.000000
11
-7371.000000
21
-3731.000000
31
0.000000
39
0.000000
0
LINE
8
_3-7_平面外部
6
CONTINUOUS
62
7
10
-7371.000000
20
-3731.000000
30
0.000000
11
-7371.000000
21
-4931.326300
31
0.000000
39
0.000000
0
LINE
8
_3-7_平面外部
6
CONTINUOUS
62
7
10
-7370.000000
20
0.000000
30
0.000000
11
-7880.000000
21
0.000000
31
0.000000
39
0.000000
0
LINE
8
_3-7_平面外部
6
CONTINUOUS
62
7
10
-7880.000000
20
0.000000
30
0.000000
11
-7880.000000
21
-2730.000000
31
0.000000
39
0.000000
0
LINE
8
_3-7_平面外部
6
CONTINUOUS
62
7
10
-7880.000000
20
-2730.000000
30
0.000000
11
-7370.000000
21
-2730.000000
31
0.000000
39
0.000000
0
LINE
8
_3-C_ハッチ
6
CONTINUOUS
62
4
10
-7880.000000
20
-2611.304348
30
0.000000
11
-7410.000000
21
-2611.304348
31
0.000000
39
0.000000
0
LINE
8
_3-C_ハッチ
6
CONTINUOUS
62
4
10
-7880.000000
20
-2492.608696
30
0.000000
11
-7410.000000
21
-2492.608696
31
0.000000
39
0.000000
0
LINE
8
_3-C_ハッチ
6
CONTINUOUS
62
4
10
-7880.000000
20
-2373.913043
30
0.000000
11
-7410.000000
21
-2373.913043
31
0.000000
39
0.000000
0
LINE
8
_3-C_ハッチ
6
CONTINUOUS
62
4
10
-7880.000000
20
-2255.217391
30
0.000000
11
-7410.000000
21
-2255.217391
31
0.000000
39
0.000000
0
LINE
8
_3-C_ハッチ
6
CONTINUOUS
62
4
10
-7880.000000
20
-2136.521739
30
0.000000
11
-7410.000000
21
-2136.521739
31
0.000000
39
0.000000
0
LINE
8
_3-C_ハッチ
6
CONTINUOUS
62
4
10
-7880.000000
20
-2017.826087
30
0.000000
11
-7410.000000
21
-2017.826087
31
0.000000
39
0.000000
0
LINE
8
_3-C_ハッチ
6
CONTINUOUS
62
4
10
-7880.000000
20
-1899.130435
30
0.000000
11
-7410.000000
21
-1899.130435
31
0.000000
39
0.000000
0
LINE
8
_3-C_ハッチ
6
CONTINUOUS
62
4
10
-7880.000000
20
-1780.434783
30
0.000000
11
-7410.000000
21
-1780.434783
31
0.000000
39
0.000000
0
LINE
8
_3-C_ハッチ
6
CONTINUOUS
62
4
10
-7880.000000
20
-1661.739130
30
0.000000
11
-7410.000000
21
-1661.739130
31
0.000000
39
0.000000
0
LINE
8
_3-C_ハッチ
6
CONTINUOUS
62
4
10
-7880.000000
20
-1543.043478
30
0.000000
11
-7410.000000
21
-1543.043478
31
0.000000
39
0.000000
0
LINE
8
_3-C_ハッチ
6
CONTINUOUS
62
4
10
-7880.000000
20
-1424.347826
30
0.000000
11
-7410.000000
21
-1424.347826
31
0.000000
39
0.000000
0
LINE
8
_3-C_ハッチ
6
CONTINUOUS
62
4
10
-7880.000000
20
-1305.652174
30
0.000000
11
-7410.000000
21
-1305.652174
31
0.000000
39
0.000000
0
LINE
8
_3-C_ハッチ
6
CONTINUOUS
62
4
10
-7880.000000
20
-1186.956522
30
0.000000
11
-7410.000000
21
-1186.956522
31
0.000000
39
0.000000
0
LINE
8
_3-C_ハッチ
6
CONTINUOUS
62
4
10
-7880.000000
20
-1068.260870
30
0.000000
11
-7410.000000
21
-1068.260870
31
0.000000
39
0.000000
0
LINE
8
_3-C_ハッチ
6
CONTINUOUS
62
4
10
-7880.000000
20
-949.565217
30
0.000000
11
-7410.000000
21
-949.565217
31
0.000000
39
0.000000
0
LINE
8
_3-C_ハッチ
6
CONTINUOUS
62
4
10
-7880.000000
20
-830.869565
30
0.000000
11
-7410.000000
21
-830.869565
31
0.000000
39
0.000000
0
LINE
8
_3-C_ハッチ
6
CONTINUOUS
62
4
10
-7880.000000
20
-712.173913
30
0.000000
11
-7410.000000
21
-712.173913
31
0.000000
39
0.000000
0
LINE
8
_3-C_ハッチ
6
CONTINUOUS
62
4
10
-7880.000000
20
-593.478261
30
0.000000
11
-7410.000000
21
-593.478261
31
0.000000
39
0.000000
0
LINE
8
_3-C_ハッチ
6
CONTINUOUS
62
4
10
-7880.000000
20
-474.782609
30
0.000000
11
-7410.000000
21
-474.782609
31
0.000000
39
0.000000
0
LINE
8
_3-C_ハッチ
6
CONTINUOUS
62
4
10
-7880.000000
20
-356.086957
30
0.000000
11
-7410.000000
21
-356.086957
31
0.000000
39
0.000000
0
LINE
8
_3-C_ハッチ
6
CONTINUOUS
62
4
10
-7880.000000
20
-237.391304
30
0.000000
11
-7410.000000
21
-237.391304
31
0.000000
39
0.000000
0
LINE
8
_3-C_ハッチ
6
CONTINUOUS
62
4
10
-7880.000000
20
-118.695652
30
0.000000
11
-7410.000000
21
-118.695652
31
0.000000
39
0.000000
0
LINE
8
_2-4_雑仕上
6
CONTINUOUS
62
4
10
-1904.500000
20
1885.000000
30
0.000000
11
-2096.114562
21
1980.807281
31
0.000000
39
0.000000
0
LINE
8
_2-4_雑仕上
6
CONTINUOUS
62
4
10
-2096.114562
20
1980.807281
30
0.000000
11
-2275.000000
21
1846.643202
31
0.000000
39
0.000000
0
LINE
8
_2-4_雑仕上
6
CONTINUOUS
62
4
10
-2275.000000
20
1846.643202
30
0.000000
11
-2275.000000
21
2293.856798
31
0.000000
39
0.000000
0
LINE
8
_2-4_雑仕上
6
CONTINUOUS
62
4
10
-2275.000000
20
2293.856798
30
0.000000
11
-2453.885438
21
2159.692719
31
0.000000
39
0.000000
0
LINE
8
_2-4_雑仕上
6
CONTINUOUS
62
4
10
-2453.885438
20
2159.692719
30
0.000000
11
-2657.500000
21
2261.500000
31
0.000000
39
0.000000
0
LINE
8
_2-4_雑仕上
6
CONTINUOUS
62
4
10
-2657.500000
20
910.000000
30
0.000000
11
-2305.000000
21
910.000000
31
0.000000
39
0.000000
0
LINE
8
_2-4_雑仕上
6
CONTINUOUS
62
4
10
-2245.000000
20
910.000000
30
0.000000
11
-1892.500000
21
910.000000
31
0.000000
39
0.000000
0
LINE
8
_2-4_雑仕上
6
CONTINUOUS
62
4
10
-2657.500000
20
910.000000
30
0.000000
11
-2305.000000
21
910.000000
31
0.000000
39
0.000000
0
LINE
8
_2-4_雑仕上
6
CONTINUOUS
62
4
10
-2245.000000
20
910.000000
30
0.000000
11
-1892.500000
21
910.000000
31
0.000000
39
0.000000
0
LINE
8
_2-4_雑仕上
6
CONTINUOUS
62
4
10
-2657.500000
20
1170.000000
30
0.000000
11
-1892.500000
21
1170.000000
31
0.000000
39
0.000000
0
LINE
8
_2-4_雑仕上
6
CONTINUOUS
62
4
10
-2657.500000
20
1430.000000
30
0.000000
11
-1892.500000
21
1430.000000
31
0.000000
39
0.000000
0
LINE
8
_2-4_雑仕上
6
CONTINUOUS
62
4
10
-2657.500000
20
1690.000000
30
0.000000
11
-1892.500000
21
1690.000000
31
0.000000
39
0.000000
0
LINE
8
_2-4_雑仕上
6
CONTINUOUS
62
4
10
-2657.500000
20
1950.000000
30
0.000000
11
-2275.000000
21
1950.000000
31
0.000000
39
0.000000
0
LINE
8
_2-4_雑仕上
6
CONTINUOUS
62
4
10
-2137.190936
20
1950.000000
30
0.000000
11
-2034.500000
21
1950.000000
31
0.000000
39
0.000000
0
LINE
8
_2-4_雑仕上
6
CONTINUOUS
62
4
10
-2657.500000
20
2210.000000
30
0.000000
11
-2554.500000
21
2210.000000
31
0.000000
39
0.000000
0
LINE
8
_2-4_雑仕上
6
CONTINUOUS
62
4
10
-2386.809064
20
2210.000000
30
0.000000
11
-2275.000000
21
2210.000000
31
0.000000
39
0.000000
0
LINE
8
_2-4_雑仕上
6
CONTINUOUS
62
4
10
-2275.000000
20
910.000000
30
0.000000
11
-2275.000000
21
1846.643202
31
0.000000
39
0.000000
0
LINE
8
_2-4_雑仕上
6
CONTINUOUS
62
4
10
-2275.000000
20
2163.856798
30
0.000000
11
-2375.000000
21
1963.856798
31
0.000000
39
0.000000
0
LINE
8
_2-4_雑仕上
6
CONTINUOUS
62
4
10
-2275.000000
20
2163.856798
30
0.000000
11
-2175.000000
21
1963.856798
31
0.000000
39
0.000000
0
LINE
8
_2-3_仕上
6
CONTINUOUS
62
7
10
-7370.000000
20
3730.000000
30
0.000000
11
-7370.000000
21
3580.000000
31
0.000000
39
0.000000
0
LINE
8
_2-3_仕上
6
CONTINUOUS
62
7
10
-7370.000000
20
1880.000000
30
0.000000
11
-7370.000000
21
1820.000000
31
0.000000
39
0.000000
0
LINE
8
_2-3_仕上
6
CONTINUOUS
62
7
10
-7195.500000
20
1892.500000
30
0.000000
11
-6310.000000
21
1892.500000
31
0.000000
39
0.000000
0
LINE
8
_2-3_仕上
6
CONTINUOUS
62
7
10
-7207.500000
20
1747.500000
30
0.000000
11
-6300.000000
21
1747.500000
31
0.000000
39
0.000000
0
LINE
8
_2-3_仕上
6
CONTINUOUS
62
7
10
-5532.500000
20
1932.500000
30
0.000000
11
-5532.500000
21
3567.500000
31
0.000000
39
0.000000
0
LINE
8
_2-3_仕上
6
CONTINUOUS
62
7
10
-5387.500000
20
1820.000000
30
0.000000
11
-5387.500000
21
3555.500000
31
0.000000
39
0.000000
0
LINE
8
_2-3_仕上
6
CONTINUOUS
62
7
10
-5532.500000
20
3567.500000
30
0.000000
11
-7195.500000
21
3567.500000
31
0.000000
39
0.000000
0
LINE
8
_2-3_仕上
6
CONTINUOUS
62
7
10
-5460.000000
20
3730.000000
30
0.000000
11
-7370.000000
21
3730.000000
31
0.000000
39
0.000000
0
LINE
8
_2-3_仕上
6
CONTINUOUS
62
7
10
-7195.500000
20
982.500000
30
0.000000
11
-6297.500000
21
982.500000
31
0.000000
39
0.000000
0
LINE
8
_2-3_仕上
6
CONTINUOUS
62
7
10
-7207.500000
20
837.500000
30
0.000000
11
-6442.500000
21
837.500000
31
0.000000
39
0.000000
0
LINE
8
_2-3_仕上
6
CONTINUOUS
62
7
10
-5532.500000
20
910.000000
30
0.000000
11
-5532.500000
21
970.000000
31
0.000000
39
0.000000
0
LINE
8
_2-3_仕上
6
CONTINUOUS
62
7
10
-5387.500000
20
1747.500000
30
0.000000
11
-5387.500000
21
1820.000000
31
0.000000
39
0.000000
0
LINE
8
_2-3_仕上
6
CONTINUOUS
62
7
10
-7207.500000
20
1747.500000
30
0.000000
11
-7207.500000
21
1740.000000
31
0.000000
39
0.000000
0
LINE
8
_2-3_仕上
6
CONTINUOUS
62
7
10
-7370.000000
20
1820.000000
30
0.000000
11
-7370.000000
21
1740.000000
31
0.000000
39
0.000000
0
LINE
8
_2-3_仕上
6
CONTINUOUS
62
7
10
-7370.000000
20
970.000000
30
0.000000
11
-7370.000000
21
910.000000
31
0.000000
39
0.000000
0
LINE
8
_2-3_仕上
6
CONTINUOUS
62
7
10
-7207.500000
20
837.500000
30
0.000000
11
-7207.500000
21
84.500000
31
0.000000
39
0.000000
0
LINE
8
_2-3_仕上
6
CONTINUOUS
62
7
10
-7370.000000
20
910.000000
30
0.000000
11
-7370.000000
21
0.000000
31
0.000000
39
0.000000
0
LINE
8
_2-3_仕上
6
CONTINUOUS
62
7
10
-7220.000000
20
-45.000000
30
0.000000
11
-7207.500000
21
-45.000000
31
0.000000
39
0.000000
0
LINE
8
_2-3_仕上
6
CONTINUOUS
62
7
10
-6442.500000
20
-45.000000
30
0.000000
11
-6430.000000
21
-45.000000
31
0.000000
39
0.000000
0
LINE
8
_2-3_仕上
6
CONTINUOUS
62
7
10
-6310.000000
20
-45.000000
30
0.000000
11
-6297.500000
21
-45.000000
31
0.000000
39
0.000000
0
LINE
8
_2-3_仕上
6
CONTINUOUS
62
7
10
-5532.500000
20
-45.000000
30
0.000000
11
-5520.000000
21
-45.000000
31
0.000000
39
0.000000
0
LINE
8
_2-3_仕上
6
CONTINUOUS
62
7
10
-7235.000000
20
-2790.000000
30
0.000000
11
-7235.000000
21
-3580.000000
31
0.000000
39
0.000000
0
LINE
8
_2-3_仕上
6
CONTINUOUS
62
7
10
-7370.000000
20
0.000000
30
0.000000
11
-7370.000000
21
-35.000000
31
0.000000
39
0.000000
0
LINE
8
_2-3_仕上
6
CONTINUOUS
62
7
10
-7370.000000
20
-2695.000000
30
0.000000
11
-7370.000000
21
-3730.000000
31
0.000000
39
0.000000
0
LINE
8
_2-3_仕上
6
CONTINUOUS
62
7
10
-7220.000000
20
-3595.000000
30
0.000000
11
-6430.000000
21
-3595.000000
31
0.000000
39
0.000000
0
LINE
8
_2-3_仕上
6
CONTINUOUS
62
7
10
-6310.000000
20
-3595.000000
30
0.000000
11
-5520.000000
21
-3595.000000
31
0.000000
39
0.000000
0
LINE
8
_2-3_仕上
6
CONTINUOUS
62
7
10
-5400.000000
20
-3595.000000
30
0.000000
11
-4610.000000
21
-3595.000000
31
0.000000
39
0.000000
0
LINE
8
_2-3_仕上
6
CONTINUOUS
62
7
10
-7370.000000
20
-3730.000000
30
0.000000
11
-4550.000000
21
-3730.000000
31
0.000000
39
0.000000
0
LINE
8
_2-3_仕上
6
CONTINUOUS
62
7
10
-4595.000000
20
-3580.000000
30
0.000000
11
-4595.000000
21
-3567.500000
31
0.000000
39
0.000000
0
LINE
8
_2-3_仕上
6
CONTINUOUS
62
7
10
-4595.000000
20
-72.500000
30
0.000000
11
-4595.000000
21
-60.000000
31
0.000000
39
0.000000
0
LINE
8
_2-3_仕上
6
CONTINUOUS
62
7
10
-5387.500000
20
-45.000000
30
0.000000
11
-5400.000000
21
-45.000000
31
0.000000
39
0.000000
0
LINE
8
_2-3_仕上
6
CONTINUOUS
62
7
10
-4550.000000
20
72.500000
30
0.000000
11
-4610.000000
21
72.500000
31
0.000000
39
0.000000
0
LINE
8
_2-3_仕上
6
CONTINUOUS
62
7
10
-2790.000000
20
-3567.500000
30
0.000000
11
-2670.000000
21
-3567.500000
31
0.000000
39
0.000000
0
LINE
8
_2-3_仕上
6
CONTINUOUS
62
7
10
-4550.000000
20
-3730.000000
30
0.000000
11
-4490.000000
21
-3730.000000
31
0.000000
39
0.000000
0
LINE
8
_2-3_仕上
6
CONTINUOUS
62
7
10
-2790.000000
20
-3730.000000
30
0.000000
11
-2670.000000
21
-3730.000000
31
0.000000
39
0.000000
0
LINE
8
_2-3_仕上
6
CONTINUOUS
62
7
10
-970.000000
20
-3730.000000
30
0.000000
11
-910.000000
21
-3730.000000
31
0.000000
39
0.000000
0
LINE
8
_2-3_仕上
6
CONTINUOUS
62
7
10
-982.500000
20
-3555.500000
30
0.000000
11
-982.500000
21
-1760.000000
31
0.000000
39
0.000000
0
LINE
8
_2-3_仕上
6
CONTINUOUS
62
7
10
-837.500000
20
-3555.500000
30
0.000000
11
-837.500000
21
-1760.000000
31
0.000000
39
0.000000
0
LINE
8
_2-3_仕上
6
CONTINUOUS
62
7
10
-2657.500000
20
-72.500000
30
0.000000
11
-2730.000000
21
-72.500000
31
0.000000
39
0.000000
0
LINE
8
_2-3_仕上
6
CONTINUOUS
62
7
10
-2730.000000
20
-72.500000
30
0.000000
11
-2802.500000
21
-72.500000
31
0.000000
39
0.000000
0
LINE
8
_2-3_仕上
6
CONTINUOUS
62
7
10
-4477.500000
20
72.500000
30
0.000000
11
-4550.000000
21
72.500000
31
0.000000
39
0.000000
0
LINE
8
_2-3_仕上
6
CONTINUOUS
62
7
10
-2802.500000
20
850.000000
30
0.000000
11
-2802.500000
21
910.000000
31
0.000000
39
0.000000
0
LINE
8
_2-3_仕上
6
CONTINUOUS
62
7
10
-2657.500000
20
850.000000
30
0.000000
11
-2657.500000
21
910.000000
31
0.000000
39
0.000000
0
LINE
8
_2-3_仕上
6
CONTINUOUS
62
7
10
-2802.500000
20
910.000000
30
0.000000
11
-2802.500000
21
2730.000000
31
0.000000
39
0.000000
0
LINE
8
_2-3_仕上
6
CONTINUOUS
62
7
10
-2657.500000
20
910.000000
30
0.000000
11
-2657.500000
21
2657.500000
31
0.000000
39
0.000000
0
LINE
8
_2-3_仕上
6
CONTINUOUS
62
7
10
-2802.500000
20
2730.000000
30
0.000000
11
-2802.500000
21
3555.500000
31
0.000000
39
0.000000
0
LINE
8
_2-3_仕上
6
CONTINUOUS
62
7
10
-2657.500000
20
2802.500000
30
0.000000
11
-2657.500000
21
3555.500000
31
0.000000
39
0.000000
0
LINE
8
_2-3_仕上
6
CONTINUOUS
62
7
10
-2730.000000
20
3730.000000
30
0.000000
11
-2790.000000
21
3730.000000
31
0.000000
39
0.000000
0
LINE
8
_2-3_仕上
6
CONTINUOUS
62
7
10
-5400.000000
20
3730.000000
30
0.000000
11
-5460.000000
21
3730.000000
31
0.000000
39
0.000000
0
LINE
8
_2-3_仕上
6
CONTINUOUS
62
7
10
-2657.500000
20
2802.500000
30
0.000000
11
-1820.000000
21
2802.500000
31
0.000000
39
0.000000
0
LINE
8
_2-3_仕上
6
CONTINUOUS
62
7
10
-2657.500000
20
2657.500000
30
0.000000
11
-1904.500000
21
2657.500000
31
0.000000
39
0.000000
0
LINE
8
_2-3_仕上
6
CONTINUOUS
62
7
10
-1820.000000
20
2802.500000
30
0.000000
11
-1747.500000
21
2802.500000
31
0.000000
39
0.000000
0
LINE
8
_2-3_仕上
6
CONTINUOUS
62
7
10
-982.500000
20
2814.500000
30
0.000000
11
-982.500000
21
3555.500000
31
0.000000
39
0.000000
0
LINE
8
_2-3_仕上
6
CONTINUOUS
62
7
10
-837.500000
20
2802.500000
30
0.000000
11
-837.500000
21
3567.500000
31
0.000000
39
0.000000
0
LINE
8
_2-3_仕上
6
CONTINUOUS
62
7
10
-910.000000
20
3730.000000
30
0.000000
11
-970.000000
21
3730.000000
31
0.000000
39
0.000000
0
LINE
8
_2-3_仕上
6
CONTINUOUS
62
7
10
-2670.000000
20
3730.000000
30
0.000000
11
-2730.000000
21
3730.000000
31
0.000000
39
0.000000
0
LINE
8
_2-3_仕上
6
CONTINUOUS
62
7
10
-1892.500000
20
837.500000
30
0.000000
11
-1892.500000
21
1880.000000
31
0.000000
39
0.000000
0
LINE
8
_2-3_仕上
6
CONTINUOUS
62
7
10
-1747.500000
20
837.500000
30
0.000000
11
-1747.500000
21
1880.000000
31
0.000000
39
0.000000
0
LINE
8
_2-3_仕上
6
CONTINUOUS
62
7
10
-1892.500000
20
837.500000
30
0.000000
11
-1747.500000
21
837.500000
31
0.000000
39
0.000000
0
LINE
8
_2-3_仕上
6
CONTINUOUS
62
7
10
-982.500000
20
1760.000000
30
0.000000
11
-982.500000
21
2645.500000
31
0.000000
39
0.000000
0
LINE
8
_2-3_仕上
6
CONTINUOUS
62
7
10
-837.500000
20
1760.000000
30
0.000000
11
-837.500000
21
2657.500000
31
0.000000
39
0.000000
0
LINE
8
_2-3_仕上
6
CONTINUOUS
62
7
10
-837.500000
20
2802.500000
30
0.000000
11
-84.500000
21
2802.500000
31
0.000000
39
0.000000
0
LINE
8
_2-3_仕上
6
CONTINUOUS
62
7
10
-837.500000
20
2657.500000
30
0.000000
11
72.500000
21
2657.500000
31
0.000000
39
0.000000
0
LINE
8
_2-3_仕上
6
CONTINUOUS
62
7
10
72.500000
20
2657.500000
30
0.000000
11
72.500000
21
2802.500000
31
0.000000
39
0.000000
0
LINE
8
_2-3_仕上
6
CONTINUOUS
62
7
10
-84.500000
20
3567.500000
30
0.000000
11
-837.500000
21
3567.500000
31
0.000000
39
0.000000
0
LINE
8
_2-3_仕上
6
CONTINUOUS
62
7
10
0.000000
20
3730.000000
30
0.000000
11
-910.000000
21
3730.000000
31
0.000000
39
0.000000
0
LINE
8
_2-3_仕上
6
CONTINUOUS
62
7
10
850.000000
20
-3567.500000
30
0.000000
11
970.000000
21
-3567.500000
31
0.000000
39
0.000000
0
LINE
8
_2-3_仕上
6
CONTINUOUS
62
7
10
-910.000000
20
-3730.000000
30
0.000000
11
-850.000000
21
-3730.000000
31
0.000000
39
0.000000
0
LINE
8
_2-3_仕上
6
CONTINUOUS
62
7
10
850.000000
20
-3730.000000
30
0.000000
11
970.000000
21
-3730.000000
31
0.000000
39
0.000000
0
LINE
8
_2-3_仕上
6
CONTINUOUS
62
7
10
2670.000000
20
-3730.000000
30
0.000000
11
2820.000000
21
-3730.000000
31
0.000000
39
0.000000
0
LINE
8
_2-3_仕上
6
CONTINUOUS
62
7
10
2820.000000
20
-3730.000000
30
0.000000
11
2820.000000
21
-3620.000000
31
0.000000
39
0.000000
0
LINE
8
_2-3_仕上
6
CONTINUOUS
62
7
10
2820.000000
20
-930.000000
30
0.000000
11
2820.000000
21
-910.000000
31
0.000000
39
0.000000
0
LINE
8
_2-3_仕上
6
CONTINUOUS
62
7
10
850.000000
20
72.500000
30
0.000000
11
2657.500000
21
72.500000
31
0.000000
39
0.000000
0
LINE
8
_2-3_仕上
6
CONTINUOUS
62
7
10
850.000000
20
-72.500000
30
0.000000
11
2645.500000
21
-72.500000
31
0.000000
39
0.000000
0
LINE
8
_2-3_仕上
6
CONTINUOUS
62
7
10
2657.500000
20
72.500000
30
0.000000
11
2657.500000
21
960.000000
31
0.000000
39
0.000000
0
LINE
8
_2-3_仕上
6
CONTINUOUS
62
7
10
2820.000000
20
0.000000
30
0.000000
11
2820.000000
21
930.000000
31
0.000000
39
0.000000
0
LINE
8
_2-3_仕上
6
CONTINUOUS
62
7
10
2820.000000
20
3620.000000
30
0.000000
11
2820.000000
21
3730.000000
31
0.000000
39
0.000000
0
LINE
8
_2-3_仕上
6
CONTINUOUS
62
7
10
970.000000
20
3567.500000
30
0.000000
11
84.500000
21
3567.500000
31
0.000000
39
0.000000
0
LINE
8
_2-3_仕上
6
CONTINUOUS
62
7
10
2820.000000
20
3730.000000
30
0.000000
11
2670.000000
21
3730.000000
31
0.000000
39
0.000000
0
LINE
8
_2-3_仕上
6
CONTINUOUS
62
7
10
970.000000
20
3730.000000
30
0.000000
11
0.000000
21
3730.000000
31
0.000000
39
0.000000
0
LINE
8
_2-3_仕上
6
CONTINUOUS
62
7
10
2820.000000
20
-910.000000
30
0.000000
11
2820.000000
21
-850.000000
31
0.000000
39
0.000000
0
LINE
8
_2-3_仕上
6
CONTINUOUS
62
7
10
2820.000000
20
-60.000000
30
0.000000
11
2820.000000
21
0.000000
31
0.000000
39
0.000000
0
LINE
8
_2-3_仕上
6
CONTINUOUS
62
7
10
-6442.500000
20
84.500000
30
0.000000
11
-6442.500000
21
364.000000
31
0.000000
39
0.000000
0
LINE
8
_2-3_仕上
6
CONTINUOUS
62
7
10
-6297.500000
20
84.500000
30
0.000000
11
-6297.500000
21
291.500000
31
0.000000
39
0.000000
0
LINE
8
_2-3_仕上
6
CONTINUOUS
62
7
10
-6442.500000
20
364.000000
30
0.000000
11
-6442.500000
21
837.500000
31
0.000000
39
0.000000
0
LINE
8
_2-3_仕上
6
CONTINUOUS
62
7
10
-6297.500000
20
436.500000
30
0.000000
11
-6297.500000
21
982.500000
31
0.000000
39
0.000000
0
LINE
8
_2-3_仕上
6
CONTINUOUS
62
7
10
-5532.500000
20
84.500000
30
0.000000
11
-5532.500000
21
291.500000
31
0.000000
39
0.000000
0
LINE
8
_2-3_仕上
6
CONTINUOUS
62
7
10
-5387.500000
20
84.500000
30
0.000000
11
-5387.500000
21
210.000000
31
0.000000
39
0.000000
0
LINE
8
_2-3_仕上
6
CONTINUOUS
62
7
10
-5532.500000
20
436.500000
30
0.000000
11
-5532.500000
21
910.000000
31
0.000000
39
0.000000
0
LINE
8
_2-3_仕上
6
CONTINUOUS
62
7
10
-6297.500000
20
436.500000
30
0.000000
11
-5532.500000
21
436.500000
31
0.000000
39
0.000000
0
LINE
8
_2-3_仕上
6
CONTINUOUS
62
7
10
-6297.500000
20
291.500000
30
0.000000
11
-5532.500000
21
291.500000
31
0.000000
39
0.000000
0
LINE
8
_2-3_仕上
6
CONTINUOUS
62
7
10
837.500000
20
-837.500000
30
0.000000
11
2645.500000
21
-837.500000
31
0.000000
39
0.000000
0
LINE
8
_2-3_仕上
6
CONTINUOUS
62
7
10
837.500000
20
-982.500000
30
0.000000
11
2657.500000
21
-982.500000
31
0.000000
39
0.000000
0
LINE
8
_2-3_仕上
6
CONTINUOUS
62
7
10
837.500000
20
-837.500000
30
0.000000
11
837.500000
21
-982.500000
31
0.000000
39
0.000000
0
LINE
8
_2-5_建具
6
CONTINUOUS
62
2
10
1842.500000
20
3695.000000
30
0.000000
11
1797.500000
21
3695.000000
31
0.000000
39
0.000000
0
LINE
8
_2-5_建具
6
CONTINUOUS
62
2
10
1797.500000
20
3695.000000
30
0.000000
11
1797.500000
21
3715.000000
31
0.000000
39
0.000000
0
LINE
8
_2-5_建具
6
CONTINUOUS
62
2
10
1797.500000
20
3715.000000
30
0.000000
11
1842.500000
21
3715.000000
31
0.000000
39
0.000000
0
LINE
8
_2-5_建具
6
CONTINUOUS
62
2
10
1842.500000
20
3715.000000
30
0.000000
11
1842.500000
21
3695.000000
31
0.000000
39
0.000000
0
LINE
8
_2-5_建具
6
CONTINUOUS
62
2
10
1842.500000
20
3725.000000
30
0.000000
11
1797.500000
21
3725.000000
31
0.000000
39
0.000000
0
LINE
8
_2-5_建具
6
CONTINUOUS
62
2
10
1797.500000
20
3725.000000
30
0.000000
11
1797.500000
21
3745.000000
31
0.000000
39
0.000000
0
LINE
8
_2-5_建具
6
CONTINUOUS
62
2
10
1797.500000
20
3745.000000
30
0.000000
11
1842.500000
21
3745.000000
31
0.000000
39
0.000000
0
LINE
8
_2-5_建具
6
CONTINUOUS
62
2
10
1842.500000
20
3745.000000
30
0.000000
11
1842.500000
21
3725.000000
31
0.000000
39
0.000000
0
LINE
8
_2-5_建具
6
CONTINUOUS
62
2
10
990.000000
20
3725.000000
30
0.000000
11
990.000000
21
3745.000000
31
0.000000
39
0.000000
0
LINE
8
_2-5_建具
6
CONTINUOUS
62
2
10
1035.000000
20
3745.000000
30
0.000000
11
1035.000000
21
3725.000000
31
0.000000
39
0.000000
0
LINE
8
_2-5_建具
6
CONTINUOUS
62
2
10
1035.000000
20
3725.000000
30
0.000000
11
990.000000
21
3725.000000
31
0.000000
39
0.000000
0
LINE
8
_2-5_建具
6
CONTINUOUS
62
2
10
990.000000
20
3745.000000
30
0.000000
11
1035.000000
21
3745.000000
31
0.000000
39
0.000000
0
LINE
8
_2-5_建具
6
CONTINUOUS
62
2
10
2605.000000
20
3695.000000
30
0.000000
11
2605.000000
21
3715.000000
31
0.000000
39
0.000000
0
LINE
8
_2-5_建具
6
CONTINUOUS
62
2
10
2650.000000
20
3695.000000
30
0.000000
11
2605.000000
21
3695.000000
31
0.000000
39
0.000000
0
LINE
8
_2-5_建具
6
CONTINUOUS
62
2
10
2605.000000
20
3715.000000
30
0.000000
11
2650.000000
21
3715.000000
31
0.000000
39
0.000000
0
LINE
8
_2-5_建具
6
CONTINUOUS
62
2
10
2650.000000
20
3715.000000
30
0.000000
11
2650.000000
21
3695.000000
31
0.000000
39
0.000000
0
LINE
8
_2-5_建具
6
CONTINUOUS
62
3
10
990.000000
20
3685.000000
30
0.000000
11
990.000000
21
3755.000000
31
0.000000
39
0.000000
0
LINE
8
_2-5_建具
6
CONTINUOUS
62
3
10
2650.000000
20
3755.000000
30
0.000000
11
2650.000000
21
3685.000000
31
0.000000
39
0.000000
0
LINE
8
_2-5_建具
6
CONTINUOUS
62
3
10
1797.500000
20
3735.000000
30
0.000000
11
1035.000000
21
3735.000000
31
0.000000
39
0.000000
0
LINE
8
_2-5_建具
6
CONTINUOUS
62
3
10
2605.000000
20
3705.000000
30
0.000000
11
1842.500000
21
3705.000000
31
0.000000
39
0.000000
0
LINE
8
_2-5_建具
6
CONTINUOUS
62
7
10
990.000000
20
3755.000000
30
0.000000
11
2650.000000
21
3755.000000
31
0.000000
39
0.000000
0
LINE
8
_2-5_建具
6
CONTINUOUS
62
7
10
990.000000
20
3685.000000
30
0.000000
11
2650.000000
21
3685.000000
31
0.000000
39
0.000000
0
LINE
8
_2-5_建具
6
CONTINUOUS
62
7
10
2657.500000
20
3555.500000
30
0.000000
11
975.000000
21
3555.500000
31
0.000000
39
0.000000
0
LINE
8
_2-5_建具
6
CONTINUOUS
62
3
10
970.000000
20
3755.000000
30
0.000000
11
970.000000
21
3685.000000
31
0.000000
39
0.000000
0
LINE
8
_2-5_建具
6
CONTINUOUS
62
3
10
990.000000
20
3755.000000
30
0.000000
11
970.000000
21
3755.000000
31
0.000000
39
0.000000
0
LINE
8
_2-5_建具
6
CONTINUOUS
62
3
10
970.000000
20
3685.000000
30
0.000000
11
990.000000
21
3685.000000
31
0.000000
39
0.000000
0
LINE
8
_2-5_建具
6
CONTINUOUS
62
3
10
970.000000
20
3685.000000
30
0.000000
11
970.000000
21
3555.500000
31
0.000000
39
0.000000
0
LINE
8
_2-5_建具
6
CONTINUOUS
62
3
10
2670.000000
20
3700.000000
30
0.000000
11
2670.000000
21
3755.000000
31
0.000000
39
0.000000
0
LINE
8
_2-5_建具
6
CONTINUOUS
62
3
10
2670.000000
20
3755.000000
30
0.000000
11
2650.000000
21
3755.000000
31
0.000000
39
0.000000
0
LINE
8
_2-5_建具
6
CONTINUOUS
62
3
10
2650.000000
20
3685.000000
30
0.000000
11
2670.000000
21
3685.000000
31
0.000000
39
0.000000
0
LINE
8
_2-5_建具
6
CONTINUOUS
62
3
10
990.000000
20
3555.500000
30
0.000000
11
990.000000
21
3685.000000
31
0.000000
39
0.000000
0
LINE
8
_2-5_建具
6
CONTINUOUS
62
3
10
970.000000
20
3555.500000
30
0.000000
11
990.000000
21
3555.500000
31
0.000000
39
0.000000
0
LINE
8
_2-5_建具
6
CONTINUOUS
62
3
10
2650.000000
20
3555.500000
30
0.000000
11
2650.000000
21
3685.000000
31
0.000000
39
0.000000
0
LINE
8
_2-5_建具
6
CONTINUOUS
62
3
10
2657.500000
20
3555.500000
30
0.000000
11
2650.000000
21
3555.500000
31
0.000000
39
0.000000
0
LINE
8
_2-5_建具
6
CONTINUOUS
62
7
10
1820.000000
20
3820.000000
30
0.000000
11
1820.000000
21
3620.000000
31
0.000000
39
0.000000
0
LINE
8
_2-5_建具
6
CONTINUOUS
62
2
10
1797.500000
20
-3695.000000
30
0.000000
11
1842.500000
21
-3695.000000
31
0.000000
39
0.000000
0
LINE
8
_2-5_建具
6
CONTINUOUS
62
2
10
1842.500000
20
-3695.000000
30
0.000000
11
1842.500000
21
-3715.000000
31
0.000000
39
0.000000
0
LINE
8
_2-5_建具
6
CONTINUOUS
62
2
10
1842.500000
20
-3715.000000
30
0.000000
11
1797.500000
21
-3715.000000
31
0.000000
39
0.000000
0
LINE
8
_2-5_建具
6
CONTINUOUS
62
2
10
1797.500000
20
-3715.000000
30
0.000000
11
1797.500000
21
-3695.000000
31
0.000000
39
0.000000
0
LINE
8
_2-5_建具
6
CONTINUOUS
62
2
10
1797.500000
20
-3725.000000
30
0.000000
11
1842.500000
21
-3725.000000
31
0.000000
39
0.000000
0
LINE
8
_2-5_建具
6
CONTINUOUS
62
2
10
1842.500000
20
-3725.000000
30
0.000000
11
1842.500000
21
-3745.000000
31
0.000000
39
0.000000
0
LINE
8
_2-5_建具
6
CONTINUOUS
62
2
10
1842.500000
20
-3745.000000
30
0.000000
11
1797.500000
21
-3745.000000
31
0.000000
39
0.000000
0
LINE
8
_2-5_建具
6
CONTINUOUS
62
2
10
1797.500000
20
-3745.000000
30
0.000000
11
1797.500000
21
-3725.000000
31
0.000000
39
0.000000
0
LINE
8
_2-5_建具
6
CONTINUOUS
62
2
10
2650.000000
20
-3725.000000
30
0.000000
11
2650.000000
21
-3745.000000
31
0.000000
39
0.000000
0
LINE
8
_2-5_建具
6
CONTINUOUS
62
2
10
2605.000000
20
-3745.000000
30
0.000000
11
2605.000000
21
-3725.000000
31
0.000000
39
0.000000
0
LINE
8
_2-5_建具
6
CONTINUOUS
62
2
10
2605.000000
20
-3725.000000
30
0.000000
11
2650.000000
21
-3725.000000
31
0.000000
39
0.000000
0
LINE
8
_2-5_建具
6
CONTINUOUS
62
2
10
2650.000000
20
-3745.000000
30
0.000000
11
2605.000000
21
-3745.000000
31
0.000000
39
0.000000
0
LINE
8
_2-5_建具
6
CONTINUOUS
62
2
10
1035.000000
20
-3695.000000
30
0.000000
11
1035.000000
21
-3715.000000
31
0.000000
39
0.000000
0
LINE
8
_2-5_建具
6
CONTINUOUS
62
2
10
990.000000
20
-3695.000000
30
0.000000
11
1035.000000
21
-3695.000000
31
0.000000
39
0.000000
0
LINE
8
_2-5_建具
6
CONTINUOUS
62
2
10
1035.000000
20
-3715.000000
30
0.000000
11
990.000000
21
-3715.000000
31
0.000000
39
0.000000
0
LINE
8
_2-5_建具
6
CONTINUOUS
62
2
10
990.000000
20
-3715.000000
30
0.000000
11
990.000000
21
-3695.000000
31
0.000000
39
0.000000
0
LINE
8
_2-5_建具
6
CONTINUOUS
62
3
10
2650.000000
20
-3685.000000
30
0.000000
11
2650.000000
21
-3755.000000
31
0.000000
39
0.000000
0
LINE
8
_2-5_建具
6
CONTINUOUS
62
3
10
990.000000
20
-3755.000000
30
0.000000
11
990.000000
21
-3685.000000
31
0.000000
39
0.000000
0
LINE
8
_2-5_建具
6
CONTINUOUS
62
3
10
1842.500000
20
-3735.000000
30
0.000000
11
2605.000000
21
-3735.000000
31
0.000000
39
0.000000
0
LINE
8
_2-5_建具
6
CONTINUOUS
62
3
10
1035.000000
20
-3705.000000
30
0.000000
11
1797.500000
21
-3705.000000
31
0.000000
39
0.000000
0
LINE
8
_2-5_建具
6
CONTINUOUS
62
7
10
2650.000000
20
-3755.000000
30
0.000000
11
990.000000
21
-3755.000000
31
0.000000
39
0.000000
0
LINE
8
_2-5_建具
6
CONTINUOUS
62
7
10
2650.000000
20
-3685.000000
30
0.000000
11
990.000000
21
-3685.000000
31
0.000000
39
0.000000
0
LINE
8
_2-5_建具
6
CONTINUOUS
62
7
10
975.000000
20
-3555.500000
30
0.000000
11
2657.500000
21
-3555.500000
31
0.000000
39
0.000000
0
LINE
8
_2-5_建具
6
CONTINUOUS
62
3
10
2670.000000
20
-3755.000000
30
0.000000
11
2670.000000
21
-3700.000000
31
0.000000
39
0.000000
0
LINE
8
_2-5_建具
6
CONTINUOUS
62
3
10
2650.000000
20
-3755.000000
30
0.000000
11
2670.000000
21
-3755.000000
31
0.000000
39
0.000000
0
LINE
8
_2-5_建具
6
CONTINUOUS
62
3
10
2670.000000
20
-3685.000000
30
0.000000
11
2650.000000
21
-3685.000000
31
0.000000
39
0.000000
0
LINE
8
_2-5_建具
6
CONTINUOUS
62
3
10
970.000000
20
-3700.000000
30
0.000000
11
970.000000
21
-3755.000000
31
0.000000
39
0.000000
0
LINE
8
_2-5_建具
6
CONTINUOUS
62
3
10
970.000000
20
-3755.000000
30
0.000000
11
990.000000
21
-3755.000000
31
0.000000
39
0.000000
0
LINE
8
_2-5_建具
6
CONTINUOUS
62
3
10
990.000000
20
-3685.000000
30
0.000000
11
970.000000
21
-3685.000000
31
0.000000
39
0.000000
0
LINE
8
_2-5_建具
6
CONTINUOUS
62
3
10
970.000000
20
-3580.000000
30
0.000000
11
970.000000
21
-3555.500000
31
0.000000
39
0.000000
0
LINE
8
_2-5_建具
6
CONTINUOUS
62
3
10
2650.000000
20
-3555.500000
30
0.000000
11
2650.000000
21
-3685.000000
31
0.000000
39
0.000000
0
LINE
8
_2-5_建具
6
CONTINUOUS
62
3
10
2657.500000
20
-3555.500000
30
0.000000
11
2650.000000
21
-3555.500000
31
0.000000
39
0.000000
0
LINE
8
_2-5_建具
6
CONTINUOUS
62
3
10
990.000000
20
-3555.500000
30
0.000000
11
990.000000
21
-3685.000000
31
0.000000
39
0.000000
0
LINE
8
_2-5_建具
6
CONTINUOUS
62
3
10
970.000000
20
-3555.500000
30
0.000000
11
990.000000
21
-3555.500000
31
0.000000
39
0.000000
0
LINE
8
_2-5_建具
6
CONTINUOUS
62
7
10
1820.000000
20
-3620.000000
30
0.000000
11
1820.000000
21
-3820.000000
31
0.000000
39
0.000000
0
LINE
8
_2-5_建具
6
CONTINUOUS
62
2
10
-22.500000
20
-3695.000000
30
0.000000
11
22.500000
21
-3695.000000
31
0.000000
39
0.000000
0
LINE
8
_2-5_建具
6
CONTINUOUS
62
2
10
22.500000
20
-3695.000000
30
0.000000
11
22.500000
21
-3715.000000
31
0.000000
39
0.000000
0
LINE
8
_2-5_建具
6
CONTINUOUS
62
2
10
22.500000
20
-3715.000000
30
0.000000
11
-22.500000
21
-3715.000000
31
0.000000
39
0.000000
0
LINE
8
_2-5_建具
6
CONTINUOUS
62
2
10
-22.500000
20
-3715.000000
30
0.000000
11
-22.500000
21
-3695.000000
31
0.000000
39
0.000000
0
LINE
8
_2-5_建具
6
CONTINUOUS
62
2
10
-22.500000
20
-3725.000000
30
0.000000
11
22.500000
21
-3725.000000
31
0.000000
39
0.000000
0
LINE
8
_2-5_建具
6
CONTINUOUS
62
2
10
22.500000
20
-3725.000000
30
0.000000
11
22.500000
21
-3745.000000
31
0.000000
39
0.000000
0
LINE
8
_2-5_建具
6
CONTINUOUS
62
2
10
22.500000
20
-3745.000000
30
0.000000
11
-22.500000
21
-3745.000000
31
0.000000
39
0.000000
0
LINE
8
_2-5_建具
6
CONTINUOUS
62
2
10
-22.500000
20
-3745.000000
30
0.000000
11
-22.500000
21
-3725.000000
31
0.000000
39
0.000000
0
LINE
8
_2-5_建具
6
CONTINUOUS
62
2
10
830.000000
20
-3725.000000
30
0.000000
11
830.000000
21
-3745.000000
31
0.000000
39
0.000000
0
LINE
8
_2-5_建具
6
CONTINUOUS
62
2
10
785.000000
20
-3745.000000
30
0.000000
11
785.000000
21
-3725.000000
31
0.000000
39
0.000000
0
LINE
8
_2-5_建具
6
CONTINUOUS
62
2
10
785.000000
20
-3725.000000
30
0.000000
11
830.000000
21
-3725.000000
31
0.000000
39
0.000000
0
LINE
8
_2-5_建具
6
CONTINUOUS
62
2
10
830.000000
20
-3745.000000
30
0.000000
11
785.000000
21
-3745.000000
31
0.000000
39
0.000000
0
LINE
8
_2-5_建具
6
CONTINUOUS
62
2
10
-785.000000
20
-3695.000000
30
0.000000
11
-785.000000
21
-3715.000000
31
0.000000
39
0.000000
0
LINE
8
_2-5_建具
6
CONTINUOUS
62
2
10
-830.000000
20
-3695.000000
30
0.000000
11
-785.000000
21
-3695.000000
31
0.000000
39
0.000000
0
LINE
8
_2-5_建具
6
CONTINUOUS
62
2
10
-785.000000
20
-3715.000000
30
0.000000
11
-830.000000
21
-3715.000000
31
0.000000
39
0.000000
0
LINE
8
_2-5_建具
6
CONTINUOUS
62
2
10
-830.000000
20
-3715.000000
30
0.000000
11
-830.000000
21
-3695.000000
31
0.000000
39
0.000000
0
LINE
8
_2-5_建具
6
CONTINUOUS
62
3
10
830.000000
20
-3685.000000
30
0.000000
11
830.000000
21
-3755.000000
31
0.000000
39
0.000000
0
LINE
8
_2-5_建具
6
CONTINUOUS
62
3
10
-830.000000
20
-3755.000000
30
0.000000
11
-830.000000
21
-3685.000000
31
0.000000
39
0.000000
0
LINE
8
_2-5_建具
6
CONTINUOUS
62
3
10
22.500000
20
-3735.000000
30
0.000000
11
785.000000
21
-3735.000000
31
0.000000
39
0.000000
0
LINE
8
_2-5_建具
6
CONTINUOUS
62
3
10
-785.000000
20
-3705.000000
30
0.000000
11
-22.500000
21
-3705.000000
31
0.000000
39
0.000000
0
LINE
8
_2-5_建具
6
CONTINUOUS
62
7
10
830.000000
20
-3755.000000
30
0.000000
11
-830.000000
21
-3755.000000
31
0.000000
39
0.000000
0
LINE
8
_2-5_建具
6
CONTINUOUS
62
7
10
830.000000
20
-3685.000000
30
0.000000
11
-830.000000
21
-3685.000000
31
0.000000
39
0.000000
0
LINE
8
_2-5_建具
6
CONTINUOUS
62
7
10
-845.000000
20
-3555.500000
30
0.000000
11
845.000000
21
-3555.500000
31
0.000000
39
0.000000
0
LINE
8
_2-5_建具
6
CONTINUOUS
62
3
10
850.000000
20
-3755.000000
30
0.000000
11
850.000000
21
-3700.000000
31
0.000000
39
0.000000
0
LINE
8
_2-5_建具
6
CONTINUOUS
62
3
10
830.000000
20
-3755.000000
30
0.000000
11
850.000000
21
-3755.000000
31
0.000000
39
0.000000
0
LINE
8
_2-5_建具
6
CONTINUOUS
62
3
10
850.000000
20
-3685.000000
30
0.000000
11
830.000000
21
-3685.000000
31
0.000000
39
0.000000
0
LINE
8
_2-5_建具
6
CONTINUOUS
62
3
10
850.000000
20
-3580.000000
30
0.000000
11
850.000000
21
-3555.500000
31
0.000000
39
0.000000
0
LINE
8
_2-5_建具
6
CONTINUOUS
62
3
10
-850.000000
20
-3700.000000
30
0.000000
11
-850.000000
21
-3755.000000
31
0.000000
39
0.000000
0
LINE
8
_2-5_建具
6
CONTINUOUS
62
3
10
-850.000000
20
-3755.000000
30
0.000000
11
-830.000000
21
-3755.000000
31
0.000000
39
0.000000
0
LINE
8
_2-5_建具
6
CONTINUOUS
62
3
10
-830.000000
20
-3685.000000
30
0.000000
11
-850.000000
21
-3685.000000
31
0.000000
39
0.000000
0
LINE
8
_2-5_建具
6
CONTINUOUS
62
3
10
-850.000000
20
-3580.000000
30
0.000000
11
-850.000000
21
-3555.500000
31
0.000000
39
0.000000
0
LINE
8
_2-5_建具
6
CONTINUOUS
62
3
10
830.000000
20
-3555.500000
30
0.000000
11
830.000000
21
-3685.000000
31
0.000000
39
0.000000
0
LINE
8
_2-5_建具
6
CONTINUOUS
62
3
10
850.000000
20
-3555.500000
30
0.000000
11
830.000000
21
-3555.500000
31
0.000000
39
0.000000
0
LINE
8
_2-5_建具
6
CONTINUOUS
62
3
10
-830.000000
20
-3555.500000
30
0.000000
11
-830.000000
21
-3685.000000
31
0.000000
39
0.000000
0
LINE
8
_2-5_建具
6
CONTINUOUS
62
3
10
-850.000000
20
-3555.500000
30
0.000000
11
-830.000000
21
-3555.500000
31
0.000000
39
0.000000
0
LINE
8
_2-5_建具
6
CONTINUOUS
62
7
10
0.000000
20
-3620.000000
30
0.000000
11
0.000000
21
-3820.000000
31
0.000000
39
0.000000
0
LINE
8
_2-5_建具
6
CONTINUOUS
62
2
10
-1842.500000
20
-3695.000000
30
0.000000
11
-1797.500000
21
-3695.000000
31
0.000000
39
0.000000
0
LINE
8
_2-5_建具
6
CONTINUOUS
62
2
10
-1797.500000
20
-3695.000000
30
0.000000
11
-1797.500000
21
-3715.000000
31
0.000000
39
0.000000
0
LINE
8
_2-5_建具
6
CONTINUOUS
62
2
10
-1797.500000
20
-3715.000000
30
0.000000
11
-1842.500000
21
-3715.000000
31
0.000000
39
0.000000
0
LINE
8
_2-5_建具
6
CONTINUOUS
62
2
10
-1842.500000
20
-3715.000000
30
0.000000
11
-1842.500000
21
-3695.000000
31
0.000000
39
0.000000
0
LINE
8
_2-5_建具
6
CONTINUOUS
62
2
10
-1842.500000
20
-3725.000000
30
0.000000
11
-1797.500000
21
-3725.000000
31
0.000000
39
0.000000
0
LINE
8
_2-5_建具
6
CONTINUOUS
62
2
10
-1797.500000
20
-3725.000000
30
0.000000
11
-1797.500000
21
-3745.000000
31
0.000000
39
0.000000
0
LINE
8
_2-5_建具
6
CONTINUOUS
62
2
10
-1797.500000
20
-3745.000000
30
0.000000
11
-1842.500000
21
-3745.000000
31
0.000000
39
0.000000
0
LINE
8
_2-5_建具
6
CONTINUOUS
62
2
10
-1842.500000
20
-3745.000000
30
0.000000
11
-1842.500000
21
-3725.000000
31
0.000000
39
0.000000
0
LINE
8
_2-5_建具
6
CONTINUOUS
62
2
10
-990.000000
20
-3725.000000
30
0.000000
11
-990.000000
21
-3745.000000
31
0.000000
39
0.000000
0
LINE
8
_2-5_建具
6
CONTINUOUS
62
2
10
-1035.000000
20
-3745.000000
30
0.000000
11
-1035.000000
21
-3725.000000
31
0.000000
39
0.000000
0
LINE
8
_2-5_建具
6
CONTINUOUS
62
2
10
-1035.000000
20
-3725.000000
30
0.000000
11
-990.000000
21
-3725.000000
31
0.000000
39
0.000000
0
LINE
8
_2-5_建具
6
CONTINUOUS
62
2
10
-990.000000
20
-3745.000000
30
0.000000
11
-1035.000000
21
-3745.000000
31
0.000000
39
0.000000
0
LINE
8
_2-5_建具
6
CONTINUOUS
62
2
10
-2605.000000
20
-3695.000000
30
0.000000
11
-2605.000000
21
-3715.000000
31
0.000000
39
0.000000
0
LINE
8
_2-5_建具
6
CONTINUOUS
62
2
10
-2650.000000
20
-3695.000000
30
0.000000
11
-2605.000000
21
-3695.000000
31
0.000000
39
0.000000
0
LINE
8
_2-5_建具
6
CONTINUOUS
62
2
10
-2605.000000
20
-3715.000000
30
0.000000
11
-2650.000000
21
-3715.000000
31
0.000000
39
0.000000
0
LINE
8
_2-5_建具
6
CONTINUOUS
62
2
10
-2650.000000
20
-3715.000000
30
0.000000
11
-2650.000000
21
-3695.000000
31
0.000000
39
0.000000
0
LINE
8
_2-5_建具
6
CONTINUOUS
62
3
10
-990.000000
20
-3685.000000
30
0.000000
11
-990.000000
21
-3755.000000
31
0.000000
39
0.000000
0
LINE
8
_2-5_建具
6
CONTINUOUS
62
3
10
-2650.000000
20
-3755.000000
30
0.000000
11
-2650.000000
21
-3685.000000
31
0.000000
39
0.000000
0
LINE
8
_2-5_建具
6
CONTINUOUS
62
3
10
-1797.500000
20
-3735.000000
30
0.000000
11
-1035.000000
21
-3735.000000
31
0.000000
39
0.000000
0
LINE
8
_2-5_建具
6
CONTINUOUS
62
3
10
-2605.000000
20
-3705.000000
30
0.000000
11
-1842.500000
21
-3705.000000
31
0.000000
39
0.000000
0
LINE
8
_2-5_建具
6
CONTINUOUS
62
7
10
-990.000000
20
-3755.000000
30
0.000000
11
-2650.000000
21
-3755.000000
31
0.000000
39
0.000000
0
LINE
8
_2-5_建具
6
CONTINUOUS
62
7
10
-990.000000
20
-3685.000000
30
0.000000
11
-2650.000000
21
-3685.000000
31
0.000000
39
0.000000
0
LINE
8
_2-5_建具
6
CONTINUOUS
62
7
10
-2665.000000
20
-3555.500000
30
0.000000
11
-975.000000
21
-3555.500000
31
0.000000
39
0.000000
0
LINE
8
_2-5_建具
6
CONTINUOUS
62
3
10
-970.000000
20
-3755.000000
30
0.000000
11
-970.000000
21
-3700.000000
31
0.000000
39
0.000000
0
LINE
8
_2-5_建具
6
CONTINUOUS
62
3
10
-990.000000
20
-3755.000000
30
0.000000
11
-970.000000
21
-3755.000000
31
0.000000
39
0.000000
0
LINE
8
_2-5_建具
6
CONTINUOUS
62
3
10
-970.000000
20
-3685.000000
30
0.000000
11
-990.000000
21
-3685.000000
31
0.000000
39
0.000000
0
LINE
8
_2-5_建具
6
CONTINUOUS
62
3
10
-970.000000
20
-3580.000000
30
0.000000
11
-970.000000
21
-3555.500000
31
0.000000
39
0.000000
0
LINE
8
_2-5_建具
6
CONTINUOUS
62
3
10
-2670.000000
20
-3700.000000
30
0.000000
11
-2670.000000
21
-3755.000000
31
0.000000
39
0.000000
0
LINE
8
_2-5_建具
6
CONTINUOUS
62
3
10
-2670.000000
20
-3755.000000
30
0.000000
11
-2650.000000
21
-3755.000000
31
0.000000
39
0.000000
0
LINE
8
_2-5_建具
6
CONTINUOUS
62
3
10
-2650.000000
20
-3685.000000
30
0.000000
11
-2670.000000
21
-3685.000000
31
0.000000
39
0.000000
0
LINE
8
_2-5_建具
6
CONTINUOUS
62
3
10
-2670.000000
20
-3580.000000
30
0.000000
11
-2670.000000
21
-3555.500000
31
0.000000
39
0.000000
0
LINE
8
_2-5_建具
6
CONTINUOUS
62
3
10
-990.000000
20
-3555.500000
30
0.000000
11
-990.000000
21
-3685.000000
31
0.000000
39
0.000000
0
LINE
8
_2-5_建具
6
CONTINUOUS
62
3
10
-970.000000
20
-3555.500000
30
0.000000
11
-990.000000
21
-3555.500000
31
0.000000
39
0.000000
0
LINE
8
_2-5_建具
6
CONTINUOUS
62
3
10
-2650.000000
20
-3555.500000
30
0.000000
11
-2650.000000
21
-3685.000000
31
0.000000
39
0.000000
0
LINE
8
_2-5_建具
6
CONTINUOUS
62
3
10
-2670.000000
20
-3555.500000
30
0.000000
11
-2650.000000
21
-3555.500000
31
0.000000
39
0.000000
0
LINE
8
_2-5_建具
6
CONTINUOUS
62
7
10
-1820.000000
20
-3620.000000
30
0.000000
11
-1820.000000
21
-3820.000000
31
0.000000
39
0.000000
0
LINE
8
_2-5_建具
6
CONTINUOUS
62
2
10
-3662.500000
20
-3695.000000
30
0.000000
11
-3617.500000
21
-3695.000000
31
0.000000
39
0.000000
0
LINE
8
_2-5_建具
6
CONTINUOUS
62
2
10
-3617.500000
20
-3695.000000
30
0.000000
11
-3617.500000
21
-3715.000000
31
0.000000
39
0.000000
0
LINE
8
_2-5_建具
6
CONTINUOUS
62
2
10
-3617.500000
20
-3715.000000
30
0.000000
11
-3662.500000
21
-3715.000000
31
0.000000
39
0.000000
0
LINE
8
_2-5_建具
6
CONTINUOUS
62
2
10
-3662.500000
20
-3715.000000
30
0.000000
11
-3662.500000
21
-3695.000000
31
0.000000
39
0.000000
0
LINE
8
_2-5_建具
6
CONTINUOUS
62
2
10
-3662.500000
20
-3725.000000
30
0.000000
11
-3617.500000
21
-3725.000000
31
0.000000
39
0.000000
0
LINE
8
_2-5_建具
6
CONTINUOUS
62
2
10
-3617.500000
20
-3725.000000
30
0.000000
11
-3617.500000
21
-3745.000000
31
0.000000
39
0.000000
0
LINE
8
_2-5_建具
6
CONTINUOUS
62
2
10
-3617.500000
20
-3745.000000
30
0.000000
11
-3662.500000
21
-3745.000000
31
0.000000
39
0.000000
0
LINE
8
_2-5_建具
6
CONTINUOUS
62
2
10
-3662.500000
20
-3745.000000
30
0.000000
11
-3662.500000
21
-3725.000000
31
0.000000
39
0.000000
0
LINE
8
_2-5_建具
6
CONTINUOUS
62
2
10
-2810.000000
20
-3725.000000
30
0.000000
11
-2810.000000
21
-3745.000000
31
0.000000
39
0.000000
0
LINE
8
_2-5_建具
6
CONTINUOUS
62
2
10
-2855.000000
20
-3745.000000
30
0.000000
11
-2855.000000
21
-3725.000000
31
0.000000
39
0.000000
0
LINE
8
_2-5_建具
6
CONTINUOUS
62
2
10
-2855.000000
20
-3725.000000
30
0.000000
11
-2810.000000
21
-3725.000000
31
0.000000
39
0.000000
0
LINE
8
_2-5_建具
6
CONTINUOUS
62
2
10
-2810.000000
20
-3745.000000
30
0.000000
11
-2855.000000
21
-3745.000000
31
0.000000
39
0.000000
0
LINE
8
_2-5_建具
6
CONTINUOUS
62
2
10
-4425.000000
20
-3695.000000
30
0.000000
11
-4425.000000
21
-3715.000000
31
0.000000
39
0.000000
0
LINE
8
_2-5_建具
6
CONTINUOUS
62
2
10
-4470.000000
20
-3695.000000
30
0.000000
11
-4425.000000
21
-3695.000000
31
0.000000
39
0.000000
0
LINE
8
_2-5_建具
6
CONTINUOUS
62
2
10
-4425.000000
20
-3715.000000
30
0.000000
11
-4470.000000
21
-3715.000000
31
0.000000
39
0.000000
0
LINE
8
_2-5_建具
6
CONTINUOUS
62
2
10
-4470.000000
20
-3715.000000
30
0.000000
11
-4470.000000
21
-3695.000000
31
0.000000
39
0.000000
0
LINE
8
_2-5_建具
6
CONTINUOUS
62
3
10
-2810.000000
20
-3685.000000
30
0.000000
11
-2810.000000
21
-3755.000000
31
0.000000
39
0.000000
0
LINE
8
_2-5_建具
6
CONTINUOUS
62
3
10
-4470.000000
20
-3755.000000
30
0.000000
11
-4470.000000
21
-3685.000000
31
0.000000
39
0.000000
0
LINE
8
_2-5_建具
6
CONTINUOUS
62
3
10
-3617.500000
20
-3735.000000
30
0.000000
11
-2855.000000
21
-3735.000000
31
0.000000
39
0.000000
0
LINE
8
_2-5_建具
6
CONTINUOUS
62
3
10
-4425.000000
20
-3705.000000
30
0.000000
11
-3662.500000
21
-3705.000000
31
0.000000
39
0.000000
0
LINE
8
_2-5_建具
6
CONTINUOUS
62
7
10
-2810.000000
20
-3755.000000
30
0.000000
11
-4470.000000
21
-3755.000000
31
0.000000
39
0.000000
0
LINE
8
_2-5_建具
6
CONTINUOUS
62
7
10
-2810.000000
20
-3685.000000
30
0.000000
11
-4470.000000
21
-3685.000000
31
0.000000
39
0.000000
0
LINE
8
_2-5_建具
6
CONTINUOUS
62
7
10
-4465.500000
20
-3555.500000
30
0.000000
11
-2795.000000
21
-3555.500000
31
0.000000
39
0.000000
0
LINE
8
_2-5_建具
6
CONTINUOUS
62
3
10
-2790.000000
20
-3755.000000
30
0.000000
11
-2790.000000
21
-3700.000000
31
0.000000
39
0.000000
0
LINE
8
_2-5_建具
6
CONTINUOUS
62
3
10
-2810.000000
20
-3755.000000
30
0.000000
11
-2790.000000
21
-3755.000000
31
0.000000
39
0.000000
0
LINE
8
_2-5_建具
6
CONTINUOUS
62
3
10
-2790.000000
20
-3685.000000
30
0.000000
11
-2810.000000
21
-3685.000000
31
0.000000
39
0.000000
0
LINE
8
_2-5_建具
6
CONTINUOUS
62
3
10
-2790.000000
20
-3580.000000
30
0.000000
11
-2790.000000
21
-3555.500000
31
0.000000
39
0.000000
0
LINE
8
_2-5_建具
6
CONTINUOUS
62
3
10
-4490.000000
20
-3700.000000
30
0.000000
11
-4490.000000
21
-3755.000000
31
0.000000
39
0.000000
0
LINE
8
_2-5_建具
6
CONTINUOUS
62
3
10
-4490.000000
20
-3755.000000
30
0.000000
11
-4470.000000
21
-3755.000000
31
0.000000
39
0.000000
0
LINE
8
_2-5_建具
6
CONTINUOUS
62
3
10
-4470.000000
20
-3685.000000
30
0.000000
11
-4490.000000
21
-3685.000000
31
0.000000
39
0.000000
0
LINE
8
_2-5_建具
6
CONTINUOUS
62
3
10
-4490.000000
20
-3580.000000
30
0.000000
11
-4490.000000
21
-3567.500000
31
0.000000
39
0.000000
0
LINE
8
_2-5_建具
6
CONTINUOUS
62
3
10
-2810.000000
20
-3555.500000
30
0.000000
11
-2810.000000
21
-3685.000000
31
0.000000
39
0.000000
0
LINE
8
_2-5_建具
6
CONTINUOUS
62
3
10
-2790.000000
20
-3555.500000
30
0.000000
11
-2810.000000
21
-3555.500000
31
0.000000
39
0.000000
0
LINE
8
_2-5_建具
6
CONTINUOUS
62
3
10
-4470.000000
20
-3567.500000
30
0.000000
11
-4470.000000
21
-3685.000000
31
0.000000
39
0.000000
0
LINE
8
_2-5_建具
6
CONTINUOUS
62
7
10
-3640.000000
20
-3620.000000
30
0.000000
11
-3640.000000
21
-3820.000000
31
0.000000
39
0.000000
0
LINE
8
_2-5_建具
6
CONTINUOUS
62
7
10
-1012.500000
20
-38.500000
30
0.000000
11
-2627.500000
21
-38.500000
31
0.000000
39
0.000000
0
LINE
8
_2-5_建具
6
CONTINUOUS
62
7
10
-1012.500000
20
38.500000
30
0.000000
11
-2627.500000
21
38.500000
31
0.000000
39
0.000000
0
LINE
8
_2-5_建具
6
CONTINUOUS
62
7
10
-1012.500000
20
-35.000000
30
0.000000
11
-1840.000000
21
-35.000000
31
0.000000
39
0.000000
0
LINE
8
_2-5_建具
6
CONTINUOUS
62
7
10
-1840.000000
20
-35.000000
30
0.000000
11
-1840.000000
21
0.000000
31
0.000000
39
0.000000
0
LINE
8
_2-5_建具
6
CONTINUOUS
62
7
10
-1840.000000
20
0.000000
30
0.000000
11
-1012.500000
21
0.000000
31
0.000000
39
0.000000
0
LINE
8
_2-5_建具
6
CONTINUOUS
62
7
10
-2627.500000
20
0.000000
30
0.000000
11
-1840.000000
21
0.000000
31
0.000000
39
0.000000
0
LINE
8
_2-5_建具
6
CONTINUOUS
62
7
10
-2627.500000
20
35.000000
30
0.000000
11
-1800.000000
21
35.000000
31
0.000000
39
0.000000
0
LINE
8
_2-5_建具
6
CONTINUOUS
62
7
10
-1800.000000
20
35.000000
30
0.000000
11
-1800.000000
21
0.000000
31
0.000000
39
0.000000
0
LINE
8
_2-5_建具
6
CONTINUOUS
62
7
10
-1820.000000
20
-300.000000
30
0.000000
11
-1820.000000
21
300.000000
31
0.000000
39
0.000000
0
LINE
8
_2-5_建具
6
CONTINUOUS
62
7
10
-1820.000000
20
-300.000000
30
0.000000
11
-1760.000000
21
-180.000000
31
0.000000
39
0.000000
0
LINE
8
_2-5_建具
6
CONTINUOUS
62
7
10
-1820.000000
20
300.000000
30
0.000000
11
-1880.000000
21
180.000000
31
0.000000
39
0.000000
0
LINE
8
_2-5_建具
6
CONTINUOUS
62
3
10
-994.500000
20
84.500000
30
0.000000
11
-1012.500000
21
84.500000
31
0.000000
39
0.000000
0
LINE
8
_2-5_建具
6
CONTINUOUS
62
3
10
-1012.500000
20
84.500000
30
0.000000
11
-1012.500000
21
-84.500000
31
0.000000
39
0.000000
0
LINE
8
_2-5_建具
6
CONTINUOUS
62
3
10
-1012.500000
20
-84.500000
30
0.000000
11
-994.500000
21
-84.500000
31
0.000000
39
0.000000
0
LINE
8
_2-5_建具
6
CONTINUOUS
62
3
10
-982.500000
20
-72.500000
30
0.000000
11
-982.500000
21
72.500000
31
0.000000
39
0.000000
0
LINE
8
_2-5_建具
6
CONTINUOUS
62
3
10
-2645.500000
20
84.500000
30
0.000000
11
-2627.500000
21
84.500000
31
0.000000
39
0.000000
0
LINE
8
_2-5_建具
6
CONTINUOUS
62
3
10
-2627.500000
20
84.500000
30
0.000000
11
-2627.500000
21
-84.500000
31
0.000000
39
0.000000
0
LINE
8
_2-5_建具
6
CONTINUOUS
62
3
10
-2627.500000
20
-84.500000
30
0.000000
11
-2657.500000
21
-84.500000
31
0.000000
39
0.000000
0
LINE
8
_2-5_建具
6
CONTINUOUS
62
3
10
-2657.500000
20
-84.500000
30
0.000000
11
-2657.500000
21
72.500000
31
0.000000
39
0.000000
0
LINE
8
_2-5_建具
6
CONTINUOUS
62
7
10
-948.500000
20
102.500000
30
0.000000
11
-948.500000
21
1730.000000
31
0.000000
39
0.000000
0
LINE
8
_2-5_建具
6
CONTINUOUS
62
7
10
-871.500000
20
102.500000
30
0.000000
11
-871.500000
21
1730.000000
31
0.000000
39
0.000000
0
LINE
8
_2-5_建具
6
CONTINUOUS
62
7
10
-945.000000
20
102.500000
30
0.000000
11
-945.000000
21
936.250000
31
0.000000
39
0.000000
0
LINE
8
_2-5_建具
6
CONTINUOUS
62
7
10
-945.000000
20
936.250000
30
0.000000
11
-910.000000
21
936.250000
31
0.000000
39
0.000000
0
LINE
8
_2-5_建具
6
CONTINUOUS
62
7
10
-910.000000
20
936.250000
30
0.000000
11
-910.000000
21
102.500000
31
0.000000
39
0.000000
0
LINE
8
_2-5_建具
6
CONTINUOUS
62
7
10
-910.000000
20
1730.000000
30
0.000000
11
-910.000000
21
936.250000
31
0.000000
39
0.000000
0
LINE
8
_2-5_建具
6
CONTINUOUS
62
7
10
-875.000000
20
1730.000000
30
0.000000
11
-875.000000
21
896.250000
31
0.000000
39
0.000000
0
LINE
8
_2-5_建具
6
CONTINUOUS
62
7
10
-875.000000
20
896.250000
30
0.000000
11
-910.000000
21
896.250000
31
0.000000
39
0.000000
0
LINE
8
_2-5_建具
6
CONTINUOUS
62
7
10
-1210.000000
20
916.250000
30
0.000000
11
-610.000000
21
916.250000
31
0.000000
39
0.000000
0
LINE
8
_2-5_建具
6
CONTINUOUS
62
7
10
-1210.000000
20
916.250000
30
0.000000
11
-1090.000000
21
856.250000
31
0.000000
39
0.000000
0
LINE
8
_2-5_建具
6
CONTINUOUS
62
7
10
-610.000000
20
916.250000
30
0.000000
11
-730.000000
21
976.250000
31
0.000000
39
0.000000
0
LINE
8
_2-5_建具
6
CONTINUOUS
62
3
10
-825.500000
20
84.500000
30
0.000000
11
-825.500000
21
102.500000
31
0.000000
39
0.000000
0
LINE
8
_2-5_建具
6
CONTINUOUS
62
3
10
-825.500000
20
102.500000
30
0.000000
11
-994.500000
21
102.500000
31
0.000000
39
0.000000
0
LINE
8
_2-5_建具
6
CONTINUOUS
62
3
10
-994.500000
20
102.500000
30
0.000000
11
-994.500000
21
72.500000
31
0.000000
39
0.000000
0
LINE
8
_2-5_建具
6
CONTINUOUS
62
3
10
-994.500000
20
72.500000
30
0.000000
11
-837.500000
21
72.500000
31
0.000000
39
0.000000
0
LINE
8
_2-5_建具
6
CONTINUOUS
62
3
10
-825.500000
20
1760.000000
30
0.000000
11
-825.500000
21
1730.000000
31
0.000000
39
0.000000
0
LINE
8
_2-5_建具
6
CONTINUOUS
62
3
10
-825.500000
20
1730.000000
30
0.000000
11
-994.500000
21
1730.000000
31
0.000000
39
0.000000
0
LINE
8
_2-5_建具
6
CONTINUOUS
62
3
10
-994.500000
20
1730.000000
30
0.000000
11
-994.500000
21
1760.000000
31
0.000000
39
0.000000
0
LINE
8
_2-5_建具
6
CONTINUOUS
62
3
10
-994.500000
20
1760.000000
30
0.000000
11
-970.000000
21
1760.000000
31
0.000000
39
0.000000
0
LINE
8
_2-5_建具
6
CONTINUOUS
62
3
10
-850.000000
20
1760.000000
30
0.000000
11
-825.500000
21
1760.000000
31
0.000000
39
0.000000
0
LINE
8
_2-5_建具
6
CONTINUOUS
62
7
10
-5562.500000
20
-72.000000
30
0.000000
11
-6267.500000
21
-72.000000
31
0.000000
39
0.000000
0
LINE
8
_2-5_建具
6
CONTINUOUS
62
7
10
-5562.500000
20
45.000000
30
0.000000
11
-6267.500000
21
45.000000
31
0.000000
39
0.000000
0
LINE
8
_2-5_建具
6
CONTINUOUS
62
7
10
-5562.500000
20
-72.000000
30
0.000000
11
-5562.500000
21
-733.750000
31
0.000000
39
0.000000
0
LINE
8
_2-5_建具
6
CONTINUOUS
62
7
10
-5597.500000
20
-28.750000
30
0.000000
11
-5597.500000
21
-733.750000
31
0.000000
39
0.000000
0
LINE
8
_2-5_建具
6
CONTINUOUS
62
7
10
-5562.500000
20
-28.750000
30
0.000000
11
-6267.500000
21
-28.750000
31
0.000000
39
0.000000
0
LINE
8
_2-5_建具
6
CONTINUOUS
62
7
10
-6257.500000
20
6.250000
30
0.000000
11
-5572.500000
21
6.250000
31
0.000000
39
0.000000
0
LINE
8
_2-5_建具
6
CONTINUOUS
62
7
10
-5915.000000
20
-283.750000
30
0.000000
11
-5915.000000
21
316.250000
31
0.000000
39
0.000000
0
LINE
8
_2-5_建具
6
CONTINUOUS
62
7
10
-5915.000000
20
-283.750000
30
0.000000
11
-5855.000000
21
-163.750000
31
0.000000
39
0.000000
0
LINE
8
_2-5_建具
6
CONTINUOUS
62
7
10
-5915.000000
20
316.250000
30
0.000000
11
-5975.000000
21
196.250000
31
0.000000
39
0.000000
0
LINE
8
_2-5_建具
6
CONTINUOUS
62
3
10
-5532.500000
20
84.500000
30
0.000000
11
-5562.500000
21
84.500000
31
0.000000
39
0.000000
0
LINE
8
_2-5_建具
6
CONTINUOUS
62
3
10
-5562.500000
20
84.500000
30
0.000000
11
-5562.500000
21
26.250000
31
0.000000
39
0.000000
0
LINE
8
_2-5_建具
6
CONTINUOUS
62
3
10
-5562.500000
20
6.250000
30
0.000000
11
-5562.500000
21
-72.000000
31
0.000000
39
0.000000
0
LINE
8
_2-5_建具
6
CONTINUOUS
62
3
10
-5562.500000
20
-72.000000
30
0.000000
11
-5532.500000
21
-72.000000
31
0.000000
39
0.000000
0
LINE
8
_2-5_建具
6
CONTINUOUS
62
3
10
-5532.500000
20
-72.000000
30
0.000000
11
-5532.500000
21
84.500000
31
0.000000
39
0.000000
0
LINE
8
_2-5_建具
6
CONTINUOUS
62
3
10
-6297.500000
20
84.500000
30
0.000000
11
-6267.500000
21
84.500000
31
0.000000
39
0.000000
0
LINE
8
_2-5_建具
6
CONTINUOUS
62
3
10
-6267.500000
20
84.500000
30
0.000000
11
-6267.500000
21
26.250000
31
0.000000
39
0.000000
0
LINE
8
_2-5_建具
6
CONTINUOUS
62
3
10
-6267.500000
20
6.250000
30
0.000000
11
-6267.500000
21
-72.000000
31
0.000000
39
0.000000
0
LINE
8
_2-5_建具
6
CONTINUOUS
62
3
10
-6267.500000
20
-72.000000
30
0.000000
11
-6297.500000
21
-72.000000
31
0.000000
39
0.000000
0
LINE
8
_2-5_建具
6
CONTINUOUS
62
3
10
-6297.500000
20
-72.000000
30
0.000000
11
-6297.500000
21
84.500000
31
0.000000
39
0.000000
0
LINE
8
_2-5_建具
6
CONTINUOUS
62
3
10
-5557.500000
20
11.250000
30
0.000000
11
-5562.500000
21
11.250000
31
0.000000
39
0.000000
0
LINE
8
_2-5_建具
6
CONTINUOUS
62
3
10
-5562.500000
20
11.250000
30
0.000000
11
-5562.500000
21
6.250000
31
0.000000
39
0.000000
0
LINE
8
_2-5_建具
6
CONTINUOUS
62
3
10
-5562.500000
20
6.250000
30
0.000000
11
-5572.500000
21
6.250000
31
0.000000
39
0.000000
0
LINE
8
_2-5_建具
6
CONTINUOUS
62
3
10
-5572.500000
20
6.250000
30
0.000000
11
-5572.500000
21
26.250000
31
0.000000
39
0.000000
0
LINE
8
_2-5_建具
6
CONTINUOUS
62
3
10
-5572.500000
20
26.250000
30
0.000000
11
-5562.500000
21
26.250000
31
0.000000
39
0.000000
0
LINE
8
_2-5_建具
6
CONTINUOUS
62
3
10
-5562.500000
20
26.250000
30
0.000000
11
-5562.500000
21
21.250000
31
0.000000
39
0.000000
0
LINE
8
_2-5_建具
6
CONTINUOUS
62
3
10
-5562.500000
20
21.250000
30
0.000000
11
-5557.500000
21
21.250000
31
0.000000
39
0.000000
0
LINE
8
_2-5_建具
6
CONTINUOUS
62
3
10
-5557.500000
20
21.250000
30
0.000000
11
-5557.500000
21
11.250000
31
0.000000
39
0.000000
0
LINE
8
_2-5_建具
6
CONTINUOUS
62
3
10
-6272.500000
20
21.250000
30
0.000000
11
-6267.500000
21
21.250000
31
0.000000
39
0.000000
0
LINE
8
_2-5_建具
6
CONTINUOUS
62
3
10
-6267.500000
20
21.250000
30
0.000000
11
-6267.500000
21
26.250000
31
0.000000
39
0.000000
0
LINE
8
_2-5_建具
6
CONTINUOUS
62
3
10
-6267.500000
20
26.250000
30
0.000000
11
-6257.500000
21
26.250000
31
0.000000
39
0.000000
0
LINE
8
_2-5_建具
6
CONTINUOUS
62
3
10
-6257.500000
20
26.250000
30
0.000000
11
-6257.500000
21
6.250000
31
0.000000
39
0.000000
0
LINE
8
_2-5_建具
6
CONTINUOUS
62
3
10
-6257.500000
20
6.250000
30
0.000000
11
-6267.500000
21
6.250000
31
0.000000
39
0.000000
0
LINE
8
_2-5_建具
6
CONTINUOUS
62
3
10
-6267.500000
20
6.250000
30
0.000000
11
-6267.500000
21
11.250000
31
0.000000
39
0.000000
0
LINE
8
_2-5_建具
6
CONTINUOUS
62
3
10
-6267.500000
20
11.250000
30
0.000000
11
-6272.500000
21
11.250000
31
0.000000
39
0.000000
0
LINE
8
_2-5_建具
6
CONTINUOUS
62
3
10
-6272.500000
20
11.250000
30
0.000000
11
-6272.500000
21
21.250000
31
0.000000
39
0.000000
0
LINE
8
_2-5_建具
6
CONTINUOUS
62
7
10
-5357.500000
20
65.000000
30
0.000000
11
-4640.000000
21
65.000000
31
0.000000
39
0.000000
0
LINE
8
_2-5_建具
6
CONTINUOUS
62
7
10
-5357.500000
20
-72.000000
30
0.000000
11
-4640.000000
21
-72.000000
31
0.000000
39
0.000000
0
LINE
8
_2-5_建具
6
CONTINUOUS
62
7
10
-5357.500000
20
84.500000
30
0.000000
11
-5357.500000
21
758.750000
31
0.000000
39
0.000000
0
LINE
8
_2-5_建具
6
CONTINUOUS
62
7
10
-5322.500000
20
41.250000
30
0.000000
11
-5322.500000
21
758.750000
31
0.000000
39
0.000000
0
LINE
8
_2-5_建具
6
CONTINUOUS
62
7
10
-5357.500000
20
41.250000
30
0.000000
11
-4640.000000
21
41.250000
31
0.000000
39
0.000000
0
LINE
8
_2-5_建具
6
CONTINUOUS
62
7
10
-4650.000000
20
6.250000
30
0.000000
11
-5347.500000
21
6.250000
31
0.000000
39
0.000000
0
LINE
8
_2-5_建具
6
CONTINUOUS
62
7
10
-4998.750000
20
296.250000
30
0.000000
11
-4998.750000
21
-303.750000
31
0.000000
39
0.000000
0
LINE
8
_2-5_建具
6
CONTINUOUS
62
7
10
-4998.750000
20
296.250000
30
0.000000
11
-5058.750000
21
176.250000
31
0.000000
39
0.000000
0
LINE
8
_2-5_建具
6
CONTINUOUS
62
7
10
-4998.750000
20
-303.750000
30
0.000000
11
-4938.750000
21
-183.750000
31
0.000000
39
0.000000
0
LINE
8
_2-5_建具
6
CONTINUOUS
62
3
10
-5387.500000
20
-72.000000
30
0.000000
11
-5357.500000
21
-72.000000
31
0.000000
39
0.000000
0
LINE
8
_2-5_建具
6
CONTINUOUS
62
3
10
-5357.500000
20
-72.000000
30
0.000000
11
-5357.500000
21
-13.750000
31
0.000000
39
0.000000
0
LINE
8
_2-5_建具
6
CONTINUOUS
62
3
10
-5357.500000
20
6.250000
30
0.000000
11
-5357.500000
21
84.500000
31
0.000000
39
0.000000
0
LINE
8
_2-5_建具
6
CONTINUOUS
62
3
10
-5357.500000
20
84.500000
30
0.000000
11
-5387.500000
21
84.500000
31
0.000000
39
0.000000
0
LINE
8
_2-5_建具
6
CONTINUOUS
62
3
10
-5387.500000
20
84.500000
30
0.000000
11
-5387.500000
21
-72.000000
31
0.000000
39
0.000000
0
LINE
8
_2-5_建具
6
CONTINUOUS
62
3
10
-4610.000000
20
-72.000000
30
0.000000
11
-4640.000000
21
-72.000000
31
0.000000
39
0.000000
0
LINE
8
_2-5_建具
6
CONTINUOUS
62
3
10
-4640.000000
20
-72.000000
30
0.000000
11
-4640.000000
21
-13.750000
31
0.000000
39
0.000000
0
LINE
8
_2-5_建具
6
CONTINUOUS
62
3
10
-4640.000000
20
6.250000
30
0.000000
11
-4640.000000
21
84.500000
31
0.000000
39
0.000000
0
LINE
8
_2-5_建具
6
CONTINUOUS
62
3
10
-4640.000000
20
84.500000
30
0.000000
11
-4610.000000
21
84.500000
31
0.000000
39
0.000000
0
LINE
8
_2-5_建具
6
CONTINUOUS
62
3
10
-4610.000000
20
84.500000
30
0.000000
11
-4610.000000
21
60.000000
31
0.000000
39
0.000000
0
LINE
8
_2-5_建具
6
CONTINUOUS
62
3
10
-4610.000000
20
-60.000000
30
0.000000
11
-4610.000000
21
-72.000000
31
0.000000
39
0.000000
0
LINE
8
_2-5_建具
6
CONTINUOUS
62
3
10
-5362.500000
20
1.250000
30
0.000000
11
-5357.500000
21
1.250000
31
0.000000
39
0.000000
0
LINE
8
_2-5_建具
6
CONTINUOUS
62
3
10
-5357.500000
20
1.250000
30
0.000000
11
-5357.500000
21
6.250000
31
0.000000
39
0.000000
0
LINE
8
_2-5_建具
6
CONTINUOUS
62
3
10
-5357.500000
20
6.250000
30
0.000000
11
-5347.500000
21
6.250000
31
0.000000
39
0.000000
0
LINE
8
_2-5_建具
6
CONTINUOUS
62
3
10
-5347.500000
20
6.250000
30
0.000000
11
-5347.500000
21
-13.750000
31
0.000000
39
0.000000
0
LINE
8
_2-5_建具
6
CONTINUOUS
62
3
10
-5347.500000
20
-13.750000
30
0.000000
11
-5357.500000
21
-13.750000
31
0.000000
39
0.000000
0
LINE
8
_2-5_建具
6
CONTINUOUS
62
3
10
-5357.500000
20
-13.750000
30
0.000000
11
-5357.500000
21
-8.750000
31
0.000000
39
0.000000
0
LINE
8
_2-5_建具
6
CONTINUOUS
62
3
10
-5357.500000
20
-8.750000
30
0.000000
11
-5362.500000
21
-8.750000
31
0.000000
39
0.000000
0
LINE
8
_2-5_建具
6
CONTINUOUS
62
3
10
-5362.500000
20
-8.750000
30
0.000000
11
-5362.500000
21
1.250000
31
0.000000
39
0.000000
0
LINE
8
_2-5_建具
6
CONTINUOUS
62
3
10
-4635.000000
20
-8.750000
30
0.000000
11
-4640.000000
21
-8.750000
31
0.000000
39
0.000000
0
LINE
8
_2-5_建具
6
CONTINUOUS
62
3
10
-4640.000000
20
-8.750000
30
0.000000
11
-4640.000000
21
-13.750000
31
0.000000
39
0.000000
0
LINE
8
_2-5_建具
6
CONTINUOUS
62
3
10
-4640.000000
20
-13.750000
30
0.000000
11
-4650.000000
21
-13.750000
31
0.000000
39
0.000000
0
LINE
8
_2-5_建具
6
CONTINUOUS
62
3
10
-4650.000000
20
-13.750000
30
0.000000
11
-4650.000000
21
6.250000
31
0.000000
39
0.000000
0
LINE
8
_2-5_建具
6
CONTINUOUS
62
3
10
-4650.000000
20
6.250000
30
0.000000
11
-4640.000000
21
6.250000
31
0.000000
39
0.000000
0
LINE
8
_2-5_建具
6
CONTINUOUS
62
3
10
-4640.000000
20
6.250000
30
0.000000
11
-4640.000000
21
1.250000
31
0.000000
39
0.000000
0
LINE
8
_2-5_建具
6
CONTINUOUS
62
3
10
-4640.000000
20
1.250000
30
0.000000
11
-4635.000000
21
1.250000
31
0.000000
39
0.000000
0
LINE
8
_2-5_建具
6
CONTINUOUS
62
3
10
-4635.000000
20
1.250000
30
0.000000
11
-4635.000000
21
-8.750000
31
0.000000
39
0.000000
0
LINE
8
_2-5_建具
6
CONTINUOUS
62
2
10
-7355.000000
20
995.000000
30
0.000000
11
-7385.000000
21
995.000000
31
0.000000
39
0.000000
0
LINE
8
_2-5_建具
6
CONTINUOUS
62
2
10
-7385.000000
20
995.000000
30
0.000000
11
-7385.000000
21
1040.000000
31
0.000000
39
0.000000
0
LINE
8
_2-5_建具
6
CONTINUOUS
62
2
10
-7385.000000
20
1040.000000
30
0.000000
11
-7355.000000
21
1040.000000
31
0.000000
39
0.000000
0
LINE
8
_2-5_建具
6
CONTINUOUS
62
2
10
-7385.000000
20
1670.000000
30
0.000000
11
-7385.000000
21
1715.000000
31
0.000000
39
0.000000
0
LINE
8
_2-5_建具
6
CONTINUOUS
62
2
10
-7385.000000
20
1715.000000
30
0.000000
11
-7355.000000
21
1715.000000
31
0.000000
39
0.000000
0
LINE
8
_2-5_建具
6
CONTINUOUS
62
2
10
-7355.000000
20
1670.000000
30
0.000000
11
-7385.000000
21
1670.000000
31
0.000000
39
0.000000
0
LINE
8
_2-5_建具
6
CONTINUOUS
62
3
10
-7370.000000
20
1040.000000
30
0.000000
11
-7370.000000
21
1670.000000
31
0.000000
39
0.000000
0
LINE
8
_2-5_建具
6
CONTINUOUS
62
2
10
-7355.000000
20
1715.000000
30
0.000000
11
-7355.000000
21
1670.000000
31
0.000000
39
0.000000
0
LINE
8
_2-5_建具
6
CONTINUOUS
62
2
10
-7355.000000
20
995.000000
30
0.000000
11
-7355.000000
21
1040.000000
31
0.000000
39
0.000000
0
LINE
8
_2-5_建具
6
CONTINUOUS
62
7
10
-7395.000000
20
990.000000
30
0.000000
11
-7395.000000
21
1720.000000
31
0.000000
39
0.000000
0
LINE
8
_2-5_建具
6
CONTINUOUS
62
7
10
-7325.000000
20
990.000000
30
0.000000
11
-7325.000000
21
1720.000000
31
0.000000
39
0.000000
0
LINE
8
_2-5_建具
6
CONTINUOUS
62
3
10
-7395.000000
20
990.000000
30
0.000000
11
-7325.000000
21
990.000000
31
0.000000
39
0.000000
0
LINE
8
_2-5_建具
6
CONTINUOUS
62
3
10
-7395.000000
20
970.000000
30
0.000000
11
-7340.000000
21
970.000000
31
0.000000
39
0.000000
0
LINE
8
_2-5_建具
6
CONTINUOUS
62
3
10
-7395.000000
20
990.000000
30
0.000000
11
-7395.000000
21
970.000000
31
0.000000
39
0.000000
0
LINE
8
_2-5_建具
6
CONTINUOUS
62
3
10
-7325.000000
20
990.000000
30
0.000000
11
-7325.000000
21
970.000000
31
0.000000
39
0.000000
0
LINE
8
_2-5_建具
6
CONTINUOUS
62
3
10
-7220.000000
20
970.000000
30
0.000000
11
-7195.500000
21
970.000000
31
0.000000
39
0.000000
0
LINE
8
_2-5_建具
6
CONTINUOUS
62
3
10
-7395.000000
20
1720.000000
30
0.000000
11
-7325.000000
21
1720.000000
31
0.000000
39
0.000000
0
LINE
8
_2-5_建具
6
CONTINUOUS
62
3
10
-7395.000000
20
1740.000000
30
0.000000
11
-7325.000000
21
1740.000000
31
0.000000
39
0.000000
0
LINE
8
_2-5_建具
6
CONTINUOUS
62
3
10
-7395.000000
20
1720.000000
30
0.000000
11
-7395.000000
21
1740.000000
31
0.000000
39
0.000000
0
LINE
8
_2-5_建具
6
CONTINUOUS
62
3
10
-7325.000000
20
1720.000000
30
0.000000
11
-7325.000000
21
1740.000000
31
0.000000
39
0.000000
0
LINE
8
_2-5_建具
6
CONTINUOUS
62
3
10
-7325.000000
20
1740.000000
30
0.000000
11
-7195.500000
21
1740.000000
31
0.000000
39
0.000000
0
LINE
8
_2-5_建具
6
CONTINUOUS
62
3
10
-7195.500000
20
990.000000
30
0.000000
11
-7325.000000
21
990.000000
31
0.000000
39
0.000000
0
LINE
8
_2-5_建具
6
CONTINUOUS
62
3
10
-7195.500000
20
970.000000
30
0.000000
11
-7195.500000
21
990.000000
31
0.000000
39
0.000000
0
LINE
8
_2-5_建具
6
CONTINUOUS
62
3
10
-7195.500000
20
1720.000000
30
0.000000
11
-7325.000000
21
1720.000000
31
0.000000
39
0.000000
0
LINE
8
_2-5_建具
6
CONTINUOUS
62
3
10
-7195.500000
20
1740.000000
30
0.000000
11
-7195.500000
21
1720.000000
31
0.000000
39
0.000000
0
LINE
8
_2-5_建具
6
CONTINUOUS
62
7
10
-7195.500000
20
990.000000
30
0.000000
11
-7195.500000
21
1720.000000
31
0.000000
39
0.000000
0
LINE
8
_2-5_建具
6
CONTINUOUS
62
7
10
-7385.000000
20
995.000000
30
0.000000
11
-8105.000000
21
995.000000
31
0.000000
39
0.000000
0
LINE
8
_2-5_建具
6
CONTINUOUS
62
7
10
-7640.000000
20
1355.000000
30
0.000000
11
-7040.000000
21
1355.000000
31
0.000000
39
0.000000
0
LINE
8
_2-5_建具
6
CONTINUOUS
62
7
10
-7640.000000
20
1355.000000
30
0.000000
11
-7520.000000
21
1295.000000
31
0.000000
39
0.000000
0
LINE
8
_2-5_建具
6
CONTINUOUS
62
7
10
-7040.000000
20
1355.000000
30
0.000000
11
-7160.000000
21
1415.000000
31
0.000000
39
0.000000
0
LINE
8
_2-5_建具
6
CONTINUOUS
62
2
10
-7335.000000
20
3560.000000
30
0.000000
11
-7335.000000
21
3515.000000
31
0.000000
39
0.000000
0
LINE
8
_2-5_建具
6
CONTINUOUS
62
2
10
-7355.000000
20
3560.000000
30
0.000000
11
-7335.000000
21
3560.000000
31
0.000000
39
0.000000
0
LINE
8
_2-5_建具
6
CONTINUOUS
62
2
10
-7355.000000
20
3515.000000
30
0.000000
11
-7355.000000
21
3560.000000
31
0.000000
39
0.000000
0
LINE
8
_2-5_建具
6
CONTINUOUS
62
2
10
-7335.000000
20
3515.000000
30
0.000000
11
-7355.000000
21
3515.000000
31
0.000000
39
0.000000
0
LINE
8
_2-5_建具
6
CONTINUOUS
62
2
10
-7335.000000
20
2752.500000
30
0.000000
11
-7335.000000
21
2707.500000
31
0.000000
39
0.000000
0
LINE
8
_2-5_建具
6
CONTINUOUS
62
2
10
-7355.000000
20
2752.500000
30
0.000000
11
-7335.000000
21
2752.500000
31
0.000000
39
0.000000
0
LINE
8
_2-5_建具
6
CONTINUOUS
62
2
10
-7355.000000
20
2707.500000
30
0.000000
11
-7355.000000
21
2752.500000
31
0.000000
39
0.000000
0
LINE
8
_2-5_建具
6
CONTINUOUS
62
2
10
-7335.000000
20
2707.500000
30
0.000000
11
-7355.000000
21
2707.500000
31
0.000000
39
0.000000
0
LINE
8
_2-5_建具
6
CONTINUOUS
62
2
10
-7385.000000
20
2752.500000
30
0.000000
11
-7365.000000
21
2752.500000
31
0.000000
39
0.000000
0
LINE
8
_2-5_建具
6
CONTINUOUS
62
2
10
-7385.000000
20
2707.500000
30
0.000000
11
-7385.000000
21
2752.500000
31
0.000000
39
0.000000
0
LINE
8
_2-5_建具
6
CONTINUOUS
62
2
10
-7365.000000
20
2707.500000
30
0.000000
11
-7385.000000
21
2707.500000
31
0.000000
39
0.000000
0
LINE
8
_2-5_建具
6
CONTINUOUS
62
2
10
-7365.000000
20
2752.500000
30
0.000000
11
-7365.000000
21
2707.500000
31
0.000000
39
0.000000
0
LINE
8
_2-5_建具
6
CONTINUOUS
62
2
10
-7365.000000
20
1945.000000
30
0.000000
11
-7365.000000
21
1900.000000
31
0.000000
39
0.000000
0
LINE
8
_2-5_建具
6
CONTINUOUS
62
2
10
-7385.000000
20
1945.000000
30
0.000000
11
-7365.000000
21
1945.000000
31
0.000000
39
0.000000
0
LINE
8
_2-5_建具
6
CONTINUOUS
62
2
10
-7365.000000
20
1900.000000
30
0.000000
11
-7385.000000
21
1900.000000
31
0.000000
39
0.000000
0
LINE
8
_2-5_建具
6
CONTINUOUS
62
2
10
-7385.000000
20
1900.000000
30
0.000000
11
-7385.000000
21
1945.000000
31
0.000000
39
0.000000
0
LINE
8
_2-5_建具
6
CONTINUOUS
62
3
10
-7395.000000
20
1900.000000
30
0.000000
11
-7325.000000
21
1900.000000
31
0.000000
39
0.000000
0
LINE
8
_2-5_建具
6
CONTINUOUS
62
3
10
-7375.000000
20
2707.500000
30
0.000000
11
-7375.000000
21
1945.000000
31
0.000000
39
0.000000
0
LINE
8
_2-5_建具
6
CONTINUOUS
62
3
10
-7345.000000
20
3515.000000
30
0.000000
11
-7345.000000
21
2752.500000
31
0.000000
39
0.000000
0
LINE
8
_2-5_建具
6
CONTINUOUS
62
7
10
-7395.000000
20
1900.000000
30
0.000000
11
-7395.000000
21
3560.000000
31
0.000000
39
0.000000
0
LINE
8
_2-5_建具
6
CONTINUOUS
62
7
10
-7325.000000
20
1900.000000
30
0.000000
11
-7325.000000
21
3560.000000
31
0.000000
39
0.000000
0
LINE
8
_2-5_建具
6
CONTINUOUS
62
3
10
-7395.000000
20
1880.000000
30
0.000000
11
-7340.000000
21
1880.000000
31
0.000000
39
0.000000
0
LINE
8
_2-5_建具
6
CONTINUOUS
62
3
10
-7395.000000
20
1880.000000
30
0.000000
11
-7395.000000
21
1900.000000
31
0.000000
39
0.000000
0
LINE
8
_2-5_建具
6
CONTINUOUS
62
3
10
-7325.000000
20
1880.000000
30
0.000000
11
-7325.000000
21
1900.000000
31
0.000000
39
0.000000
0
LINE
8
_2-5_建具
6
CONTINUOUS
62
3
10
-7220.000000
20
1880.000000
30
0.000000
11
-7195.500000
21
1880.000000
31
0.000000
39
0.000000
0
LINE
8
_2-5_建具
6
CONTINUOUS
62
3
10
-7195.500000
20
1880.000000
30
0.000000
11
-7195.500000
21
1900.000000
31
0.000000
39
0.000000
0
LINE
8
_2-5_建具
6
CONTINUOUS
62
3
10
-7195.500000
20
1900.000000
30
0.000000
11
-7325.000000
21
1900.000000
31
0.000000
39
0.000000
0
LINE
8
_2-5_建具
6
CONTINUOUS
62
3
10
-7395.000000
20
3560.000000
30
0.000000
11
-7325.000000
21
3560.000000
31
0.000000
39
0.000000
0
LINE
8
_2-5_建具
6
CONTINUOUS
62
3
10
-7395.000000
20
3580.000000
30
0.000000
11
-7340.000000
21
3580.000000
31
0.000000
39
0.000000
0
LINE
8
_2-5_建具
6
CONTINUOUS
62
3
10
-7395.000000
20
3580.000000
30
0.000000
11
-7395.000000
21
3560.000000
31
0.000000
39
0.000000
0
LINE
8
_2-5_建具
6
CONTINUOUS
62
3
10
-7325.000000
20
3580.000000
30
0.000000
11
-7325.000000
21
3560.000000
31
0.000000
39
0.000000
0
LINE
8
_2-5_建具
6
CONTINUOUS
62
3
10
-7220.000000
20
3580.000000
30
0.000000
11
-7195.500000
21
3580.000000
31
0.000000
39
0.000000
0
LINE
8
_2-5_建具
6
CONTINUOUS
62
3
10
-7195.500000
20
3580.000000
30
0.000000
11
-7195.500000
21
3560.000000
31
0.000000
39
0.000000
0
LINE
8
_2-5_建具
6
CONTINUOUS
62
3
10
-7195.500000
20
3560.000000
30
0.000000
11
-7325.000000
21
3560.000000
31
0.000000
39
0.000000
0
LINE
8
_2-5_建具
6
CONTINUOUS
62
7
10
-7195.500000
20
3560.000000
30
0.000000
11
-7195.500000
21
1900.000000
31
0.000000
39
0.000000
0
LINE
8
_2-5_建具
6
CONTINUOUS
62
7
10
-7660.000000
20
2730.000000
30
0.000000
11
-7060.000000
21
2730.000000
31
0.000000
39
0.000000
0
LINE
8
_2-5_建具
6
CONTINUOUS
62
7
10
-7660.000000
20
2730.000000
30
0.000000
11
-7540.000000
21
2670.000000
31
0.000000
39
0.000000
0
LINE
8
_2-5_建具
6
CONTINUOUS
62
7
10
-7060.000000
20
2730.000000
30
0.000000
11
-7180.000000
21
2790.000000
31
0.000000
39
0.000000
0
LINE
8
_2-5_建具
6
CONTINUOUS
62
2
10
-990.000000
20
3695.000000
30
0.000000
11
-1035.000000
21
3695.000000
31
0.000000
39
0.000000
0
LINE
8
_2-5_建具
6
CONTINUOUS
62
2
10
-990.000000
20
3715.000000
30
0.000000
11
-990.000000
21
3695.000000
31
0.000000
39
0.000000
0
LINE
8
_2-5_建具
6
CONTINUOUS
62
2
10
-1035.000000
20
3715.000000
30
0.000000
11
-990.000000
21
3715.000000
31
0.000000
39
0.000000
0
LINE
8
_2-5_建具
6
CONTINUOUS
62
2
10
-1035.000000
20
3695.000000
30
0.000000
11
-1035.000000
21
3715.000000
31
0.000000
39
0.000000
0
LINE
8
_2-5_建具
6
CONTINUOUS
62
2
10
-1797.500000
20
3695.000000
30
0.000000
11
-1842.500000
21
3695.000000
31
0.000000
39
0.000000
0
LINE
8
_2-5_建具
6
CONTINUOUS
62
2
10
-1797.500000
20
3715.000000
30
0.000000
11
-1797.500000
21
3695.000000
31
0.000000
39
0.000000
0
LINE
8
_2-5_建具
6
CONTINUOUS
62
2
10
-1842.500000
20
3715.000000
30
0.000000
11
-1797.500000
21
3715.000000
31
0.000000
39
0.000000
0
LINE
8
_2-5_建具
6
CONTINUOUS
62
2
10
-1842.500000
20
3695.000000
30
0.000000
11
-1842.500000
21
3715.000000
31
0.000000
39
0.000000
0
LINE
8
_2-5_建具
6
CONTINUOUS
62
2
10
-1797.500000
20
3745.000000
30
0.000000
11
-1797.500000
21
3725.000000
31
0.000000
39
0.000000
0
LINE
8
_2-5_建具
6
CONTINUOUS
62
2
10
-1842.500000
20
3745.000000
30
0.000000
11
-1797.500000
21
3745.000000
31
0.000000
39
0.000000
0
LINE
8
_2-5_建具
6
CONTINUOUS
62
2
10
-1842.500000
20
3725.000000
30
0.000000
11
-1842.500000
21
3745.000000
31
0.000000
39
0.000000
0
LINE
8
_2-5_建具
6
CONTINUOUS
62
2
10
-1797.500000
20
3725.000000
30
0.000000
11
-1842.500000
21
3725.000000
31
0.000000
39
0.000000
0
LINE
8
_2-5_建具
6
CONTINUOUS
62
2
10
-2605.000000
20
3725.000000
30
0.000000
11
-2650.000000
21
3725.000000
31
0.000000
39
0.000000
0
LINE
8
_2-5_建具
6
CONTINUOUS
62
2
10
-2605.000000
20
3745.000000
30
0.000000
11
-2605.000000
21
3725.000000
31
0.000000
39
0.000000
0
LINE
8
_2-5_建具
6
CONTINUOUS
62
2
10
-2650.000000
20
3725.000000
30
0.000000
11
-2650.000000
21
3745.000000
31
0.000000
39
0.000000
0
LINE
8
_2-5_建具
6
CONTINUOUS
62
2
10
-2650.000000
20
3745.000000
30
0.000000
11
-2605.000000
21
3745.000000
31
0.000000
39
0.000000
0
LINE
8
_2-5_建具
6
CONTINUOUS
62
3
10
-2650.000000
20
3755.000000
30
0.000000
11
-2650.000000
21
3685.000000
31
0.000000
39
0.000000
0
LINE
8
_2-5_建具
6
CONTINUOUS
62
3
10
-1842.500000
20
3735.000000
30
0.000000
11
-2605.000000
21
3735.000000
31
0.000000
39
0.000000
0
LINE
8
_2-5_建具
6
CONTINUOUS
62
3
10
-1035.000000
20
3705.000000
30
0.000000
11
-1797.500000
21
3705.000000
31
0.000000
39
0.000000
0
LINE
8
_2-5_建具
6
CONTINUOUS
62
7
10
-2650.000000
20
3755.000000
30
0.000000
11
-990.000000
21
3755.000000
31
0.000000
39
0.000000
0
LINE
8
_2-5_建具
6
CONTINUOUS
62
7
10
-2650.000000
20
3685.000000
30
0.000000
11
-990.000000
21
3685.000000
31
0.000000
39
0.000000
0
LINE
8
_2-5_建具
6
CONTINUOUS
62
3
10
-2670.000000
20
3755.000000
30
0.000000
11
-2670.000000
21
3700.000000
31
0.000000
39
0.000000
0
LINE
8
_2-5_建具
6
CONTINUOUS
62
3
10
-2670.000000
20
3755.000000
30
0.000000
11
-2650.000000
21
3755.000000
31
0.000000
39
0.000000
0
LINE
8
_2-5_建具
6
CONTINUOUS
62
3
10
-2670.000000
20
3685.000000
30
0.000000
11
-2650.000000
21
3685.000000
31
0.000000
39
0.000000
0
LINE
8
_2-5_建具
6
CONTINUOUS
62
3
10
-2670.000000
20
3580.000000
30
0.000000
11
-2670.000000
21
3555.500000
31
0.000000
39
0.000000
0
LINE
8
_2-5_建具
6
CONTINUOUS
62
3
10
-2670.000000
20
3555.500000
30
0.000000
11
-2650.000000
21
3555.500000
31
0.000000
39
0.000000
0
LINE
8
_2-5_建具
6
CONTINUOUS
62
3
10
-2650.000000
20
3555.500000
30
0.000000
11
-2650.000000
21
3685.000000
31
0.000000
39
0.000000
0
LINE
8
_2-5_建具
6
CONTINUOUS
62
3
10
-990.000000
20
3755.000000
30
0.000000
11
-990.000000
21
3685.000000
31
0.000000
39
0.000000
0
LINE
8
_2-5_建具
6
CONTINUOUS
62
3
10
-970.000000
20
3755.000000
30
0.000000
11
-970.000000
21
3700.000000
31
0.000000
39
0.000000
0
LINE
8
_2-5_建具
6
CONTINUOUS
62
3
10
-970.000000
20
3755.000000
30
0.000000
11
-990.000000
21
3755.000000
31
0.000000
39
0.000000
0
LINE
8
_2-5_建具
6
CONTINUOUS
62
3
10
-970.000000
20
3685.000000
30
0.000000
11
-990.000000
21
3685.000000
31
0.000000
39
0.000000
0
LINE
8
_2-5_建具
6
CONTINUOUS
62
3
10
-970.000000
20
3580.000000
30
0.000000
11
-970.000000
21
3555.500000
31
0.000000
39
0.000000
0
LINE
8
_2-5_建具
6
CONTINUOUS
62
3
10
-970.000000
20
3555.500000
30
0.000000
11
-990.000000
21
3555.500000
31
0.000000
39
0.000000
0
LINE
8
_2-5_建具
6
CONTINUOUS
62
3
10
-990.000000
20
3555.500000
30
0.000000
11
-990.000000
21
3685.000000
31
0.000000
39
0.000000
0
LINE
8
_2-5_建具
6
CONTINUOUS
62
7
10
-990.000000
20
3555.500000
30
0.000000
11
-2650.000000
21
3555.500000
31
0.000000
39
0.000000
0
LINE
8
_2-5_建具
6
CONTINUOUS
62
7
10
-1820.000000
20
3420.000000
30
0.000000
11
-1820.000000
21
4020.000000
31
0.000000
39
0.000000
0
LINE
8
_2-5_建具
6
CONTINUOUS
62
7
10
-1820.000000
20
3420.000000
30
0.000000
11
-1760.000000
21
3540.000000
31
0.000000
39
0.000000
0
LINE
8
_2-5_建具
6
CONTINUOUS
62
7
10
-1820.000000
20
4020.000000
30
0.000000
11
-1880.000000
21
3900.000000
31
0.000000
39
0.000000
0
LINE
8
_2-5_建具
6
CONTINUOUS
62
3
10
-2810.000000
20
3755.000000
30
0.000000
11
-2810.000000
21
3685.000000
31
0.000000
39
0.000000
0
LINE
8
_2-5_建具
6
CONTINUOUS
62
7
10
-2810.000000
20
3755.000000
30
0.000000
11
-5380.000000
21
3755.000000
31
0.000000
39
0.000000
0
LINE
8
_2-5_建具
6
CONTINUOUS
62
7
10
-2810.000000
20
3685.000000
30
0.000000
11
-5380.000000
21
3685.000000
31
0.000000
39
0.000000
0
LINE
8
_2-5_建具
6
CONTINUOUS
62
2
10
-4760.000000
20
3745.000000
30
0.000000
11
-4760.000000
21
3725.000000
31
0.000000
39
0.000000
0
LINE
8
_2-5_建具
6
CONTINUOUS
62
2
10
-4715.000000
20
3725.000000
30
0.000000
11
-4715.000000
21
3745.000000
31
0.000000
39
0.000000
0
LINE
8
_2-5_建具
6
CONTINUOUS
62
2
10
-5380.000000
20
3725.000000
30
0.000000
11
-5380.000000
21
3745.000000
31
0.000000
39
0.000000
0
LINE
8
_2-5_建具
6
CONTINUOUS
62
2
10
-5335.000000
20
3745.000000
30
0.000000
11
-5335.000000
21
3725.000000
31
0.000000
39
0.000000
0
LINE
8
_2-5_建具
6
CONTINUOUS
62
2
10
-5335.000000
20
3725.000000
30
0.000000
11
-5380.000000
21
3725.000000
31
0.000000
39
0.000000
0
LINE
8
_2-5_建具
6
CONTINUOUS
62
2
10
-5380.000000
20
3745.000000
30
0.000000
11
-5335.000000
21
3745.000000
31
0.000000
39
0.000000
0
LINE
8
_2-5_建具
6
CONTINUOUS
62
2
10
-4715.000000
20
3715.000000
30
0.000000
11
-4715.000000
21
3695.000000
31
0.000000
39
0.000000
0
LINE
8
_2-5_建具
6
CONTINUOUS
62
2
10
-3430.000000
20
3715.000000
30
0.000000
11
-3475.000000
21
3715.000000
31
0.000000
39
0.000000
0
LINE
8
_2-5_建具
6
CONTINUOUS
62
2
10
-3475.000000
20
3695.000000
30
0.000000
11
-3430.000000
21
3695.000000
31
0.000000
39
0.000000
0
LINE
8
_2-5_建具
6
CONTINUOUS
62
2
10
-3475.000000
20
3715.000000
30
0.000000
11
-3475.000000
21
3695.000000
31
0.000000
39
0.000000
0
LINE
8
_2-5_建具
6
CONTINUOUS
62
2
10
-3430.000000
20
3725.000000
30
0.000000
11
-3475.000000
21
3725.000000
31
0.000000
39
0.000000
0
LINE
8
_2-5_建具
6
CONTINUOUS
62
2
10
-3475.000000
20
3745.000000
30
0.000000
11
-3430.000000
21
3745.000000
31
0.000000
39
0.000000
0
LINE
8
_2-5_建具
6
CONTINUOUS
62
2
10
-3475.000000
20
3725.000000
30
0.000000
11
-3475.000000
21
3745.000000
31
0.000000
39
0.000000
0
LINE
8
_2-5_建具
6
CONTINUOUS
62
2
10
-4095.000000
20
3715.000000
30
0.000000
11
-4050.000000
21
3715.000000
31
0.000000
39
0.000000
0
LINE
8
_2-5_建具
6
CONTINUOUS
62
2
10
-4050.000000
20
3715.000000
30
0.000000
11
-4050.000000
21
3695.000000
31
0.000000
39
0.000000
0
LINE
8
_2-5_建具
6
CONTINUOUS
62
2
10
-4050.000000
20
3695.000000
30
0.000000
11
-4095.000000
21
3695.000000
31
0.000000
39
0.000000
0
LINE
8
_2-5_建具
6
CONTINUOUS
62
2
10
-4760.000000
20
3715.000000
30
0.000000
11
-4715.000000
21
3715.000000
31
0.000000
39
0.000000
0
LINE
8
_2-5_建具
6
CONTINUOUS
62
2
10
-4715.000000
20
3695.000000
30
0.000000
11
-4760.000000
21
3695.000000
31
0.000000
39
0.000000
0
LINE
8
_2-5_建具
6
CONTINUOUS
62
2
10
-4760.000000
20
3725.000000
30
0.000000
11
-4715.000000
21
3725.000000
31
0.000000
39
0.000000
0
LINE
8
_2-5_建具
6
CONTINUOUS
62
2
10
-4715.000000
20
3745.000000
30
0.000000
11
-4760.000000
21
3745.000000
31
0.000000
39
0.000000
0
LINE
8
_2-5_建具
6
CONTINUOUS
62
2
10
-4095.000000
20
3715.000000
30
0.000000
11
-4140.000000
21
3715.000000
31
0.000000
39
0.000000
0
LINE
8
_2-5_建具
6
CONTINUOUS
62
2
10
-4140.000000
20
3715.000000
30
0.000000
11
-4140.000000
21
3695.000000
31
0.000000
39
0.000000
0
LINE
8
_2-5_建具
6
CONTINUOUS
62
2
10
-4140.000000
20
3695.000000
30
0.000000
11
-4095.000000
21
3695.000000
31
0.000000
39
0.000000
0
LINE
8
_2-5_建具
6
CONTINUOUS
62
2
10
-2855.000000
20
3745.000000
30
0.000000
11
-2855.000000
21
3725.000000
31
0.000000
39
0.000000
0
LINE
8
_2-5_建具
6
CONTINUOUS
62
2
10
-2855.000000
20
3725.000000
30
0.000000
11
-2810.000000
21
3725.000000
31
0.000000
39
0.000000
0
LINE
8
_2-5_建具
6
CONTINUOUS
62
2
10
-2810.000000
20
3745.000000
30
0.000000
11
-2855.000000
21
3745.000000
31
0.000000
39
0.000000
0
LINE
8
_2-5_建具
6
CONTINUOUS
62
2
10
-2810.000000
20
3725.000000
30
0.000000
11
-2810.000000
21
3745.000000
31
0.000000
39
0.000000
0
LINE
8
_2-5_建具
6
CONTINUOUS
62
2
10
-3430.000000
20
3695.000000
30
0.000000
11
-3430.000000
21
3715.000000
31
0.000000
39
0.000000
0
LINE
8
_2-5_建具
6
CONTINUOUS
62
2
10
-3430.000000
20
3745.000000
30
0.000000
11
-3430.000000
21
3725.000000
31
0.000000
39
0.000000
0
LINE
8
_2-5_建具
6
CONTINUOUS
62
3
10
-3430.000000
20
3735.000000
30
0.000000
11
-2855.000000
21
3735.000000
31
0.000000
39
0.000000
0
LINE
8
_2-5_建具
6
CONTINUOUS
62
2
10
-4095.000000
20
3715.000000
30
0.000000
11
-4095.000000
21
3695.000000
31
0.000000
39
0.000000
0
LINE
8
_2-5_建具
6
CONTINUOUS
62
3
10
-4050.000000
20
3705.000000
30
0.000000
11
-3475.000000
21
3705.000000
31
0.000000
39
0.000000
0
LINE
8
_2-5_建具
6
CONTINUOUS
62
2
10
-4760.000000
20
3695.000000
30
0.000000
11
-4760.000000
21
3715.000000
31
0.000000
39
0.000000
0
LINE
8
_2-5_建具
6
CONTINUOUS
62
3
10
-4760.000000
20
3735.000000
30
0.000000
11
-5335.000000
21
3735.000000
31
0.000000
39
0.000000
0
LINE
8
_2-5_建具
6
CONTINUOUS
62
2
10
-4095.000000
20
3695.000000
30
0.000000
11
-4095.000000
21
3715.000000
31
0.000000
39
0.000000
0
LINE
8
_2-5_建具
6
CONTINUOUS
62
2
10
-4095.000000
20
3715.000000
30
0.000000
11
-4095.000000
21
3695.000000
31
0.000000
39
0.000000
0
LINE
8
_2-5_建具
6
CONTINUOUS
62
3
10
-4140.000000
20
3705.000000
30
0.000000
11
-4715.000000
21
3705.000000
31
0.000000
39
0.000000
0
LINE
8
_2-5_建具
6
CONTINUOUS
62
3
10
-2790.000000
20
3755.000000
30
0.000000
11
-2790.000000
21
3700.000000
31
0.000000
39
0.000000
0
LINE
8
_2-5_建具
6
CONTINUOUS
62
3
10
-2790.000000
20
3755.000000
30
0.000000
11
-2810.000000
21
3755.000000
31
0.000000
39
0.000000
0
LINE
8
_2-5_建具
6
CONTINUOUS
62
3
10
-2790.000000
20
3685.000000
30
0.000000
11
-2810.000000
21
3685.000000
31
0.000000
39
0.000000
0
LINE
8
_2-5_建具
6
CONTINUOUS
62
3
10
-2790.000000
20
3580.000000
30
0.000000
11
-2790.000000
21
3555.500000
31
0.000000
39
0.000000
0
LINE
8
_2-5_建具
6
CONTINUOUS
62
3
10
-2790.000000
20
3555.500000
30
0.000000
11
-2810.000000
21
3555.500000
31
0.000000
39
0.000000
0
LINE
8
_2-5_建具
6
CONTINUOUS
62
3
10
-2810.000000
20
3555.500000
30
0.000000
11
-2810.000000
21
3685.000000
31
0.000000
39
0.000000
0
LINE
8
_2-5_建具
6
CONTINUOUS
62
3
10
-5380.000000
20
3755.000000
30
0.000000
11
-5380.000000
21
3685.000000
31
0.000000
39
0.000000
0
LINE
8
_2-5_建具
6
CONTINUOUS
62
3
10
-5400.000000
20
3755.000000
30
0.000000
11
-5400.000000
21
3700.000000
31
0.000000
39
0.000000
0
LINE
8
_2-5_建具
6
CONTINUOUS
62
3
10
-5400.000000
20
3755.000000
30
0.000000
11
-5380.000000
21
3755.000000
31
0.000000
39
0.000000
0
LINE
8
_2-5_建具
6
CONTINUOUS
62
3
10
-5400.000000
20
3685.000000
30
0.000000
11
-5380.000000
21
3685.000000
31
0.000000
39
0.000000
0
LINE
8
_2-5_建具
6
CONTINUOUS
62
3
10
-5400.000000
20
3580.000000
30
0.000000
11
-5400.000000
21
3555.500000
31
0.000000
39
0.000000
0
LINE
8
_2-5_建具
6
CONTINUOUS
62
3
10
-5400.000000
20
3555.500000
30
0.000000
11
-5380.000000
21
3555.500000
31
0.000000
39
0.000000
0
LINE
8
_2-5_建具
6
CONTINUOUS
62
3
10
-5380.000000
20
3555.500000
30
0.000000
11
-5380.000000
21
3685.000000
31
0.000000
39
0.000000
0
LINE
8
_2-5_建具
6
CONTINUOUS
62
7
10
-5380.000000
20
3555.500000
30
0.000000
11
-2810.000000
21
3555.500000
31
0.000000
39
0.000000
0
LINE
8
_2-5_建具
6
CONTINUOUS
62
7
10
-4095.000000
20
3420.000000
30
0.000000
11
-4095.000000
21
4020.000000
31
0.000000
39
0.000000
0
LINE
8
_2-5_建具
6
CONTINUOUS
62
7
10
-4095.000000
20
3420.000000
30
0.000000
11
-4035.000000
21
3540.000000
31
0.000000
39
0.000000
0
LINE
8
_2-5_建具
6
CONTINUOUS
62
7
10
-4095.000000
20
4020.000000
30
0.000000
11
-4155.000000
21
3900.000000
31
0.000000
39
0.000000
0
LINE
8
_2-5_建具
6
CONTINUOUS
62
7
10
-3465.000000
20
3620.000000
30
0.000000
11
-3465.000000
21
3820.000000
31
0.000000
39
0.000000
0
LINE
8
_2-5_建具
6
CONTINUOUS
62
7
10
-4725.000000
20
3820.000000
30
0.000000
11
-4725.000000
21
3620.000000
31
0.000000
39
0.000000
0
LINE
8
_2-5_建具
6
CONTINUOUS
62
7
10
55.000000
20
3537.500000
30
0.000000
11
55.000000
21
2832.500000
31
0.000000
39
0.000000
0
LINE
8
_2-5_建具
6
CONTINUOUS
62
7
10
-22.000000
20
3537.500000
30
0.000000
11
-22.000000
21
2832.500000
31
0.000000
39
0.000000
0
LINE
8
_2-5_建具
6
CONTINUOUS
62
7
10
84.500000
20
3537.500000
30
0.000000
11
740.000000
21
3537.500000
31
0.000000
39
0.000000
0
LINE
8
_2-5_建具
6
CONTINUOUS
62
7
10
35.000000
20
3502.500000
30
0.000000
11
740.000000
21
3502.500000
31
0.000000
39
0.000000
0
LINE
8
_2-5_建具
6
CONTINUOUS
62
7
10
35.000000
20
3537.500000
30
0.000000
11
35.000000
21
2832.500000
31
0.000000
39
0.000000
0
LINE
8
_2-5_建具
6
CONTINUOUS
62
7
10
0.000000
20
2842.500000
30
0.000000
11
0.000000
21
3527.500000
31
0.000000
39
0.000000
0
LINE
8
_2-5_建具
6
CONTINUOUS
62
7
10
290.000000
20
3185.000000
30
0.000000
11
-310.000000
21
3185.000000
31
0.000000
39
0.000000
0
LINE
8
_2-5_建具
6
CONTINUOUS
62
7
10
290.000000
20
3185.000000
30
0.000000
11
170.000000
21
3245.000000
31
0.000000
39
0.000000
0
LINE
8
_2-5_建具
6
CONTINUOUS
62
7
10
-310.000000
20
3185.000000
30
0.000000
11
-190.000000
21
3125.000000
31
0.000000
39
0.000000
0
LINE
8
_2-5_建具
6
CONTINUOUS
62
3
10
-84.500000
20
3567.500000
30
0.000000
11
-84.500000
21
3537.500000
31
0.000000
39
0.000000
0
LINE
8
_2-5_建具
6
CONTINUOUS
62
3
10
-84.500000
20
3537.500000
30
0.000000
11
-20.000000
21
3537.500000
31
0.000000
39
0.000000
0
LINE
8
_2-5_建具
6
CONTINUOUS
62
3
10
0.000000
20
3537.500000
30
0.000000
11
84.500000
21
3537.500000
31
0.000000
39
0.000000
0
LINE
8
_2-5_建具
6
CONTINUOUS
62
3
10
84.500000
20
3537.500000
30
0.000000
11
84.500000
21
3567.500000
31
0.000000
39
0.000000
0
LINE
8
_2-5_建具
6
CONTINUOUS
62
3
10
84.500000
20
3567.500000
30
0.000000
11
-84.500000
21
3567.500000
31
0.000000
39
0.000000
0
LINE
8
_2-5_建具
6
CONTINUOUS
62
3
10
-84.500000
20
2802.500000
30
0.000000
11
-84.500000
21
2832.500000
31
0.000000
39
0.000000
0
LINE
8
_2-5_建具
6
CONTINUOUS
62
3
10
-84.500000
20
2832.500000
30
0.000000
11
-20.000000
21
2832.500000
31
0.000000
39
0.000000
0
LINE
8
_2-5_建具
6
CONTINUOUS
62
3
10
0.000000
20
2832.500000
30
0.000000
11
84.500000
21
2832.500000
31
0.000000
39
0.000000
0
LINE
8
_2-5_建具
6
CONTINUOUS
62
3
10
84.500000
20
2832.500000
30
0.000000
11
84.500000
21
2802.500000
31
0.000000
39
0.000000
0
LINE
8
_2-5_建具
6
CONTINUOUS
62
3
10
84.500000
20
2802.500000
30
0.000000
11
-84.500000
21
2802.500000
31
0.000000
39
0.000000
0
LINE
8
_2-5_建具
6
CONTINUOUS
62
3
10
-5.000000
20
3542.500000
30
0.000000
11
-5.000000
21
3537.500000
31
0.000000
39
0.000000
0
LINE
8
_2-5_建具
6
CONTINUOUS
62
3
10
-5.000000
20
3537.500000
30
0.000000
11
0.000000
21
3537.500000
31
0.000000
39
0.000000
0
LINE
8
_2-5_建具
6
CONTINUOUS
62
3
10
0.000000
20
3537.500000
30
0.000000
11
0.000000
21
3527.500000
31
0.000000
39
0.000000
0
LINE
8
_2-5_建具
6
CONTINUOUS
62
3
10
0.000000
20
3527.500000
30
0.000000
11
-20.000000
21
3527.500000
31
0.000000
39
0.000000
0
LINE
8
_2-5_建具
6
CONTINUOUS
62
3
10
-20.000000
20
3527.500000
30
0.000000
11
-20.000000
21
3537.500000
31
0.000000
39
0.000000
0
LINE
8
_2-5_建具
6
CONTINUOUS
62
3
10
-20.000000
20
3537.500000
30
0.000000
11
-15.000000
21
3537.500000
31
0.000000
39
0.000000
0
LINE
8
_2-5_建具
6
CONTINUOUS
62
3
10
-15.000000
20
3537.500000
30
0.000000
11
-15.000000
21
3542.500000
31
0.000000
39
0.000000
0
LINE
8
_2-5_建具
6
CONTINUOUS
62
3
10
-15.000000
20
3542.500000
30
0.000000
11
-5.000000
21
3542.500000
31
0.000000
39
0.000000
0
LINE
8
_2-5_建具
6
CONTINUOUS
62
3
10
-15.000000
20
2827.500000
30
0.000000
11
-15.000000
21
2832.500000
31
0.000000
39
0.000000
0
LINE
8
_2-5_建具
6
CONTINUOUS
62
3
10
-15.000000
20
2832.500000
30
0.000000
11
-20.000000
21
2832.500000
31
0.000000
39
0.000000
0
LINE
8
_2-5_建具
6
CONTINUOUS
62
3
10
-20.000000
20
2832.500000
30
0.000000
11
-20.000000
21
2842.500000
31
0.000000
39
0.000000
0
LINE
8
_2-5_建具
6
CONTINUOUS
62
3
10
-20.000000
20
2842.500000
30
0.000000
11
0.000000
21
2842.500000
31
0.000000
39
0.000000
0
LINE
8
_2-5_建具
6
CONTINUOUS
62
3
10
0.000000
20
2842.500000
30
0.000000
11
0.000000
21
2832.500000
31
0.000000
39
0.000000
0
LINE
8
_2-5_建具
6
CONTINUOUS
62
3
10
0.000000
20
2832.500000
30
0.000000
11
-5.000000
21
2832.500000
31
0.000000
39
0.000000
0
LINE
8
_2-5_建具
6
CONTINUOUS
62
3
10
-5.000000
20
2832.500000
30
0.000000
11
-5.000000
21
2827.500000
31
0.000000
39
0.000000
0
LINE
8
_2-5_建具
6
CONTINUOUS
62
3
10
-5.000000
20
2827.500000
30
0.000000
11
-15.000000
21
2827.500000
31
0.000000
39
0.000000
0
LINE
8
_2-5_建具
6
CONTINUOUS
62
2
10
2805.000000
20
-85.000000
30
0.000000
11
2835.000000
21
-85.000000
31
0.000000
39
0.000000
0
LINE
8
_2-5_建具
6
CONTINUOUS
62
2
10
2835.000000
20
-85.000000
30
0.000000
11
2835.000000
21
-130.000000
31
0.000000
39
0.000000
0
LINE
8
_2-5_建具
6
CONTINUOUS
62
2
10
2835.000000
20
-130.000000
30
0.000000
11
2805.000000
21
-130.000000
31
0.000000
39
0.000000
0
LINE
8
_2-5_建具
6
CONTINUOUS
62
2
10
2835.000000
20
-780.000000
30
0.000000
11
2835.000000
21
-825.000000
31
0.000000
39
0.000000
0
LINE
8
_2-5_建具
6
CONTINUOUS
62
2
10
2835.000000
20
-825.000000
30
0.000000
11
2805.000000
21
-825.000000
31
0.000000
39
0.000000
0
LINE
8
_2-5_建具
6
CONTINUOUS
62
2
10
2805.000000
20
-780.000000
30
0.000000
11
2835.000000
21
-780.000000
31
0.000000
39
0.000000
0
LINE
8
_2-5_建具
6
CONTINUOUS
62
3
10
2820.000000
20
-130.000000
30
0.000000
11
2820.000000
21
-780.000000
31
0.000000
39
0.000000
0
LINE
8
_2-5_建具
6
CONTINUOUS
62
2
10
2805.000000
20
-825.000000
30
0.000000
11
2805.000000
21
-780.000000
31
0.000000
39
0.000000
0
LINE
8
_2-5_建具
6
CONTINUOUS
62
2
10
2805.000000
20
-85.000000
30
0.000000
11
2805.000000
21
-130.000000
31
0.000000
39
0.000000
0
LINE
8
_2-5_建具
6
CONTINUOUS
62
7
10
2845.000000
20
-80.000000
30
0.000000
11
2845.000000
21
-830.000000
31
0.000000
39
0.000000
0
LINE
8
_2-5_建具
6
CONTINUOUS
62
7
10
2775.000000
20
-80.000000
30
0.000000
11
2775.000000
21
-830.000000
31
0.000000
39
0.000000
0
LINE
8
_2-5_建具
6
CONTINUOUS
62
3
10
2845.000000
20
-80.000000
30
0.000000
11
2775.000000
21
-80.000000
31
0.000000
39
0.000000
0
LINE
8
_2-5_建具
6
CONTINUOUS
62
3
10
2845.000000
20
-60.000000
30
0.000000
11
2790.000000
21
-60.000000
31
0.000000
39
0.000000
0
LINE
8
_2-5_建具
6
CONTINUOUS
62
3
10
2845.000000
20
-80.000000
30
0.000000
11
2845.000000
21
-60.000000
31
0.000000
39
0.000000
0
LINE
8
_2-5_建具
6
CONTINUOUS
62
3
10
2775.000000
20
-80.000000
30
0.000000
11
2775.000000
21
-60.000000
31
0.000000
39
0.000000
0
LINE
8
_2-5_建具
6
CONTINUOUS
62
3
10
2670.000000
20
-60.000000
30
0.000000
11
2645.500000
21
-60.000000
31
0.000000
39
0.000000
0
LINE
8
_2-5_建具
6
CONTINUOUS
62
3
10
2845.000000
20
-830.000000
30
0.000000
11
2775.000000
21
-830.000000
31
0.000000
39
0.000000
0
LINE
8
_2-5_建具
6
CONTINUOUS
62
3
10
2845.000000
20
-850.000000
30
0.000000
11
2790.000000
21
-850.000000
31
0.000000
39
0.000000
0
LINE
8
_2-5_建具
6
CONTINUOUS
62
3
10
2845.000000
20
-830.000000
30
0.000000
11
2845.000000
21
-850.000000
31
0.000000
39
0.000000
0
LINE
8
_2-5_建具
6
CONTINUOUS
62
3
10
2775.000000
20
-830.000000
30
0.000000
11
2775.000000
21
-850.000000
31
0.000000
39
0.000000
0
LINE
8
_2-5_建具
6
CONTINUOUS
62
3
10
2670.000000
20
-850.000000
30
0.000000
11
2645.500000
21
-850.000000
31
0.000000
39
0.000000
0
LINE
8
_2-5_建具
6
CONTINUOUS
62
3
10
2645.500000
20
-80.000000
30
0.000000
11
2775.000000
21
-80.000000
31
0.000000
39
0.000000
0
LINE
8
_2-5_建具
6
CONTINUOUS
62
3
10
2645.500000
20
-60.000000
30
0.000000
11
2645.500000
21
-80.000000
31
0.000000
39
0.000000
0
LINE
8
_2-5_建具
6
CONTINUOUS
62
3
10
2645.500000
20
-830.000000
30
0.000000
11
2775.000000
21
-830.000000
31
0.000000
39
0.000000
0
LINE
8
_2-5_建具
6
CONTINUOUS
62
3
10
2645.500000
20
-850.000000
30
0.000000
11
2645.500000
21
-830.000000
31
0.000000
39
0.000000
0
LINE
8
_2-5_建具
6
CONTINUOUS
62
7
10
2835.000000
20
-85.000000
30
0.000000
11
3575.000000
21
-85.000000
31
0.000000
39
0.000000
0
LINE
8
_2-5_建具
6
CONTINUOUS
62
7
10
3090.000000
20
-455.000000
30
0.000000
11
2490.000000
21
-455.000000
31
0.000000
39
0.000000
0
LINE
8
_2-5_建具
6
CONTINUOUS
62
7
10
3090.000000
20
-455.000000
30
0.000000
11
2970.000000
21
-395.000000
31
0.000000
39
0.000000
0
LINE
8
_2-5_建具
6
CONTINUOUS
62
7
10
2490.000000
20
-455.000000
30
0.000000
11
2610.000000
21
-515.000000
31
0.000000
39
0.000000
0
LINE
8
_2-5_建具
6
CONTINUOUS
62
7
10
-807.500000
20
38.500000
30
0.000000
11
820.000000
21
38.500000
31
0.000000
39
0.000000
0
LINE
8
_2-5_建具
6
CONTINUOUS
62
7
10
-807.500000
20
-38.500000
30
0.000000
11
820.000000
21
-38.500000
31
0.000000
39
0.000000
0
LINE
8
_2-5_建具
6
CONTINUOUS
62
7
10
-807.500000
20
35.000000
30
0.000000
11
26.250000
21
35.000000
31
0.000000
39
0.000000
0
LINE
8
_2-5_建具
6
CONTINUOUS
62
7
10
26.250000
20
35.000000
30
0.000000
11
26.250000
21
0.000000
31
0.000000
39
0.000000
0
LINE
8
_2-5_建具
6
CONTINUOUS
62
7
10
26.250000
20
0.000000
30
0.000000
11
-807.500000
21
0.000000
31
0.000000
39
0.000000
0
LINE
8
_2-5_建具
6
CONTINUOUS
62
7
10
820.000000
20
0.000000
30
0.000000
11
26.250000
21
0.000000
31
0.000000
39
0.000000
0
LINE
8
_2-5_建具
6
CONTINUOUS
62
7
10
820.000000
20
-35.000000
30
0.000000
11
-13.750000
21
-35.000000
31
0.000000
39
0.000000
0
LINE
8
_2-5_建具
6
CONTINUOUS
62
7
10
-13.750000
20
-35.000000
30
0.000000
11
-13.750000
21
0.000000
31
0.000000
39
0.000000
0
LINE
8
_2-5_建具
6
CONTINUOUS
62
7
10
6.250000
20
300.000000
30
0.000000
11
6.250000
21
-300.000000
31
0.000000
39
0.000000
0
LINE
8
_2-5_建具
6
CONTINUOUS
62
7
10
6.250000
20
300.000000
30
0.000000
11
-53.750000
21
180.000000
31
0.000000
39
0.000000
0
LINE
8
_2-5_建具
6
CONTINUOUS
62
7
10
6.250000
20
-300.000000
30
0.000000
11
66.250000
21
-180.000000
31
0.000000
39
0.000000
0
LINE
8
_2-5_建具
6
CONTINUOUS
62
3
10
-825.500000
20
-84.500000
30
0.000000
11
-807.500000
21
-84.500000
31
0.000000
39
0.000000
0
LINE
8
_2-5_建具
6
CONTINUOUS
62
3
10
-807.500000
20
-84.500000
30
0.000000
11
-807.500000
21
84.500000
31
0.000000
39
0.000000
0
LINE
8
_2-5_建具
6
CONTINUOUS
62
3
10
-807.500000
20
84.500000
30
0.000000
11
-837.500000
21
84.500000
31
0.000000
39
0.000000
0
LINE
8
_2-5_建具
6
CONTINUOUS
62
3
10
-837.500000
20
84.500000
30
0.000000
11
-837.500000
21
-72.500000
31
0.000000
39
0.000000
0
LINE
8
_2-5_建具
6
CONTINUOUS
62
3
10
850.000000
20
-84.500000
30
0.000000
11
820.000000
21
-84.500000
31
0.000000
39
0.000000
0
LINE
8
_2-5_建具
6
CONTINUOUS
62
3
10
820.000000
20
-84.500000
30
0.000000
11
820.000000
21
84.500000
31
0.000000
39
0.000000
0
LINE
8
_2-5_建具
6
CONTINUOUS
62
3
10
820.000000
20
84.500000
30
0.000000
11
850.000000
21
84.500000
31
0.000000
39
0.000000
0
LINE
8
_2-5_建具
6
CONTINUOUS
62
3
10
850.000000
20
84.500000
30
0.000000
11
850.000000
21
60.000000
31
0.000000
39
0.000000
0
LINE
8
_2-5_建具
6
CONTINUOUS
62
3
10
850.000000
20
-60.000000
30
0.000000
11
850.000000
21
-84.500000
31
0.000000
39
0.000000
0
LINE
8
_2-5_建具
6
CONTINUOUS
62
7
10
-4447.500000
20
-38.500000
30
0.000000
11
-2832.500000
21
-38.500000
31
0.000000
39
0.000000
0
LINE
8
_2-5_建具
6
CONTINUOUS
62
7
10
-4447.500000
20
38.500000
30
0.000000
11
-2832.500000
21
38.500000
31
0.000000
39
0.000000
0
LINE
8
_2-5_建具
6
CONTINUOUS
62
7
10
-4447.500000
20
35.000000
30
0.000000
11
-3620.000000
21
35.000000
31
0.000000
39
0.000000
0
LINE
8
_2-5_建具
6
CONTINUOUS
62
7
10
-3620.000000
20
35.000000
30
0.000000
11
-3620.000000
21
0.000000
31
0.000000
39
0.000000
0
LINE
8
_2-5_建具
6
CONTINUOUS
62
7
10
-3620.000000
20
0.000000
30
0.000000
11
-4447.500000
21
0.000000
31
0.000000
39
0.000000
0
LINE
8
_2-5_建具
6
CONTINUOUS
62
7
10
-2832.500000
20
0.000000
30
0.000000
11
-3620.000000
21
0.000000
31
0.000000
39
0.000000
0
LINE
8
_2-5_建具
6
CONTINUOUS
62
7
10
-2832.500000
20
-35.000000
30
0.000000
11
-3660.000000
21
-35.000000
31
0.000000
39
0.000000
0
LINE
8
_2-5_建具
6
CONTINUOUS
62
7
10
-3660.000000
20
-35.000000
30
0.000000
11
-3660.000000
21
0.000000
31
0.000000
39
0.000000
0
LINE
8
_2-5_建具
6
CONTINUOUS
62
7
10
-3640.000000
20
300.000000
30
0.000000
11
-3640.000000
21
-300.000000
31
0.000000
39
0.000000
0
LINE
8
_2-5_建具
6
CONTINUOUS
62
7
10
-3640.000000
20
300.000000
30
0.000000
11
-3700.000000
21
180.000000
31
0.000000
39
0.000000
0
LINE
8
_2-5_建具
6
CONTINUOUS
62
7
10
-3640.000000
20
-300.000000
30
0.000000
11
-3580.000000
21
-180.000000
31
0.000000
39
0.000000
0
LINE
8
_2-5_建具
6
CONTINUOUS
62
3
10
-4477.500000
20
84.500000
30
0.000000
11
-4447.500000
21
84.500000
31
0.000000
39
0.000000
0
LINE
8
_2-5_建具
6
CONTINUOUS
62
3
10
-4447.500000
20
84.500000
30
0.000000
11
-4447.500000
21
-84.500000
31
0.000000
39
0.000000
0
LINE
8
_2-5_建具
6
CONTINUOUS
62
3
10
-4447.500000
20
-84.500000
30
0.000000
11
-4465.500000
21
-84.500000
31
0.000000
39
0.000000
0
LINE
8
_2-5_建具
6
CONTINUOUS
62
3
10
-4477.500000
20
-72.500000
30
0.000000
11
-4477.500000
21
84.500000
31
0.000000
39
0.000000
0
LINE
8
_2-5_建具
6
CONTINUOUS
62
3
10
-2814.500000
20
84.500000
30
0.000000
11
-2832.500000
21
84.500000
31
0.000000
39
0.000000
0
LINE
8
_2-5_建具
6
CONTINUOUS
62
3
10
-2832.500000
20
84.500000
30
0.000000
11
-2832.500000
21
-84.500000
31
0.000000
39
0.000000
0
LINE
8
_2-5_建具
6
CONTINUOUS
62
3
10
-2832.500000
20
-84.500000
30
0.000000
11
-2802.500000
21
-84.500000
31
0.000000
39
0.000000
0
LINE
8
_2-5_建具
6
CONTINUOUS
62
3
10
-2802.500000
20
-84.500000
30
0.000000
11
-2802.500000
21
72.500000
31
0.000000
39
0.000000
0
LINE
8
_2-5_建具
6
CONTINUOUS
62
7
10
-2675.000000
20
820.000000
30
0.000000
11
-2675.000000
21
102.500000
31
0.000000
39
0.000000
0
LINE
8
_2-5_建具
6
CONTINUOUS
62
7
10
-2752.000000
20
820.000000
30
0.000000
11
-2752.000000
21
102.500000
31
0.000000
39
0.000000
0
LINE
8
_2-5_建具
6
CONTINUOUS
62
7
10
-2645.500000
20
820.000000
30
0.000000
11
-1977.500000
21
820.000000
31
0.000000
39
0.000000
0
LINE
8
_2-5_建具
6
CONTINUOUS
62
7
10
-2695.000000
20
785.000000
30
0.000000
11
-1977.500000
21
785.000000
31
0.000000
39
0.000000
0
LINE
8
_2-5_建具
6
CONTINUOUS
62
7
10
-2695.000000
20
820.000000
30
0.000000
11
-2695.000000
21
102.500000
31
0.000000
39
0.000000
0
LINE
8
_2-5_建具
6
CONTINUOUS
62
7
10
-2730.000000
20
112.500000
30
0.000000
11
-2730.000000
21
810.000000
31
0.000000
39
0.000000
0
LINE
8
_2-5_建具
6
CONTINUOUS
62
7
10
-2440.000000
20
461.250000
30
0.000000
11
-3040.000000
21
461.250000
31
0.000000
39
0.000000
0
LINE
8
_2-5_建具
6
CONTINUOUS
62
7
10
-2440.000000
20
461.250000
30
0.000000
11
-2560.000000
21
521.250000
31
0.000000
39
0.000000
0
LINE
8
_2-5_建具
6
CONTINUOUS
62
7
10
-3040.000000
20
461.250000
30
0.000000
11
-2920.000000
21
401.250000
31
0.000000
39
0.000000
0
LINE
8
_2-5_建具
6
CONTINUOUS
62
3
10
-2814.500000
20
850.000000
30
0.000000
11
-2814.500000
21
820.000000
31
0.000000
39
0.000000
0
LINE
8
_2-5_建具
6
CONTINUOUS
62
3
10
-2814.500000
20
820.000000
30
0.000000
11
-2750.000000
21
820.000000
31
0.000000
39
0.000000
0
LINE
8
_2-5_建具
6
CONTINUOUS
62
3
10
-2730.000000
20
820.000000
30
0.000000
11
-2645.500000
21
820.000000
31
0.000000
39
0.000000
0
LINE
8
_2-5_建具
6
CONTINUOUS
62
3
10
-2645.500000
20
820.000000
30
0.000000
11
-2645.500000
21
850.000000
31
0.000000
39
0.000000
0
LINE
8
_2-5_建具
6
CONTINUOUS
62
3
10
-2645.500000
20
850.000000
30
0.000000
11
-2670.000000
21
850.000000
31
0.000000
39
0.000000
0
LINE
8
_2-5_建具
6
CONTINUOUS
62
3
10
-2790.000000
20
850.000000
30
0.000000
11
-2814.500000
21
850.000000
31
0.000000
39
0.000000
0
LINE
8
_2-5_建具
6
CONTINUOUS
62
3
10
-2814.500000
20
72.500000
30
0.000000
11
-2814.500000
21
102.500000
31
0.000000
39
0.000000
0
LINE
8
_2-5_建具
6
CONTINUOUS
62
3
10
-2814.500000
20
102.500000
30
0.000000
11
-2750.000000
21
102.500000
31
0.000000
39
0.000000
0
LINE
8
_2-5_建具
6
CONTINUOUS
62
3
10
-2730.000000
20
102.500000
30
0.000000
11
-2645.500000
21
102.500000
31
0.000000
39
0.000000
0
LINE
8
_2-5_建具
6
CONTINUOUS
62
3
10
-2645.500000
20
102.500000
30
0.000000
11
-2645.500000
21
72.500000
31
0.000000
39
0.000000
0
LINE
8
_2-5_建具
6
CONTINUOUS
62
3
10
-2645.500000
20
72.500000
30
0.000000
11
-2814.500000
21
72.500000
31
0.000000
39
0.000000
0
LINE
8
_2-5_建具
6
CONTINUOUS
62
3
10
-2735.000000
20
825.000000
30
0.000000
11
-2735.000000
21
820.000000
31
0.000000
39
0.000000
0
LINE
8
_2-5_建具
6
CONTINUOUS
62
3
10
-2735.000000
20
820.000000
30
0.000000
11
-2730.000000
21
820.000000
31
0.000000
39
0.000000
0
LINE
8
_2-5_建具
6
CONTINUOUS
62
3
10
-2730.000000
20
820.000000
30
0.000000
11
-2730.000000
21
810.000000
31
0.000000
39
0.000000
0
LINE
8
_2-5_建具
6
CONTINUOUS
62
3
10
-2730.000000
20
810.000000
30
0.000000
11
-2750.000000
21
810.000000
31
0.000000
39
0.000000
0
LINE
8
_2-5_建具
6
CONTINUOUS
62
3
10
-2750.000000
20
810.000000
30
0.000000
11
-2750.000000
21
820.000000
31
0.000000
39
0.000000
0
LINE
8
_2-5_建具
6
CONTINUOUS
62
3
10
-2750.000000
20
820.000000
30
0.000000
11
-2745.000000
21
820.000000
31
0.000000
39
0.000000
0
LINE
8
_2-5_建具
6
CONTINUOUS
62
3
10
-2745.000000
20
820.000000
30
0.000000
11
-2745.000000
21
825.000000
31
0.000000
39
0.000000
0
LINE
8
_2-5_建具
6
CONTINUOUS
62
3
10
-2745.000000
20
825.000000
30
0.000000
11
-2735.000000
21
825.000000
31
0.000000
39
0.000000
0
LINE
8
_2-5_建具
6
CONTINUOUS
62
3
10
-2745.000000
20
97.500000
30
0.000000
11
-2745.000000
21
102.500000
31
0.000000
39
0.000000
0
LINE
8
_2-5_建具
6
CONTINUOUS
62
3
10
-2745.000000
20
102.500000
30
0.000000
11
-2750.000000
21
102.500000
31
0.000000
39
0.000000
0
LINE
8
_2-5_建具
6
CONTINUOUS
62
3
10
-2750.000000
20
102.500000
30
0.000000
11
-2750.000000
21
112.500000
31
0.000000
39
0.000000
0
LINE
8
_2-5_建具
6
CONTINUOUS
62
3
10
-2750.000000
20
112.500000
30
0.000000
11
-2730.000000
21
112.500000
31
0.000000
39
0.000000
0
LINE
8
_2-5_建具
6
CONTINUOUS
62
3
10
-2730.000000
20
112.500000
30
0.000000
11
-2730.000000
21
102.500000
31
0.000000
39
0.000000
0
LINE
8
_2-5_建具
6
CONTINUOUS
62
3
10
-2730.000000
20
102.500000
30
0.000000
11
-2735.000000
21
102.500000
31
0.000000
39
0.000000
0
LINE
8
_2-5_建具
6
CONTINUOUS
62
3
10
-2735.000000
20
102.500000
30
0.000000
11
-2735.000000
21
97.500000
31
0.000000
39
0.000000
0
LINE
8
_2-5_建具
6
CONTINUOUS
62
3
10
-2735.000000
20
97.500000
30
0.000000
11
-2745.000000
21
97.500000
31
0.000000
39
0.000000
0
LINE
8
_2-5_建具
6
CONTINUOUS
62
7
10
-1012.500000
20
2675.000000
30
0.000000
11
-1717.500000
21
2675.000000
31
0.000000
39
0.000000
0
LINE
8
_2-5_建具
6
CONTINUOUS
62
7
10
-1012.500000
20
2752.000000
30
0.000000
11
-1717.500000
21
2752.000000
31
0.000000
39
0.000000
0
LINE
8
_2-5_建具
6
CONTINUOUS
62
7
10
-1012.500000
20
2645.500000
30
0.000000
11
-1012.500000
21
1990.000000
31
0.000000
39
0.000000
0
LINE
8
_2-5_建具
6
CONTINUOUS
62
7
10
-1047.500000
20
2695.000000
30
0.000000
11
-1047.500000
21
1990.000000
31
0.000000
39
0.000000
0
LINE
8
_2-5_建具
6
CONTINUOUS
62
7
10
-1012.500000
20
2695.000000
30
0.000000
11
-1717.500000
21
2695.000000
31
0.000000
39
0.000000
0
LINE
8
_2-5_建具
6
CONTINUOUS
62
7
10
-1707.500000
20
2730.000000
30
0.000000
11
-1022.500000
21
2730.000000
31
0.000000
39
0.000000
0
LINE
8
_2-5_建具
6
CONTINUOUS
62
7
10
-1365.000000
20
2440.000000
30
0.000000
11
-1365.000000
21
3040.000000
31
0.000000
39
0.000000
0
LINE
8
_2-5_建具
6
CONTINUOUS
62
7
10
-1365.000000
20
2440.000000
30
0.000000
11
-1305.000000
21
2560.000000
31
0.000000
39
0.000000
0
LINE
8
_2-5_建具
6
CONTINUOUS
62
7
10
-1365.000000
20
3040.000000
30
0.000000
11
-1425.000000
21
2920.000000
31
0.000000
39
0.000000
0
LINE
8
_2-5_建具
6
CONTINUOUS
62
3
10
-982.500000
20
2814.500000
30
0.000000
11
-1012.500000
21
2814.500000
31
0.000000
39
0.000000
0
LINE
8
_2-5_建具
6
CONTINUOUS
62
3
10
-1012.500000
20
2814.500000
30
0.000000
11
-1012.500000
21
2750.000000
31
0.000000
39
0.000000
0
LINE
8
_2-5_建具
6
CONTINUOUS
62
3
10
-1012.500000
20
2730.000000
30
0.000000
11
-1012.500000
21
2645.500000
31
0.000000
39
0.000000
0
LINE
8
_2-5_建具
6
CONTINUOUS
62
3
10
-1012.500000
20
2645.500000
30
0.000000
11
-982.500000
21
2645.500000
31
0.000000
39
0.000000
0
LINE
8
_2-5_建具
6
CONTINUOUS
62
3
10
-982.500000
20
2645.500000
30
0.000000
11
-982.500000
21
2814.500000
31
0.000000
39
0.000000
0
LINE
8
_2-5_建具
6
CONTINUOUS
62
3
10
-1747.500000
20
2814.500000
30
0.000000
11
-1717.500000
21
2814.500000
31
0.000000
39
0.000000
0
LINE
8
_2-5_建具
6
CONTINUOUS
62
3
10
-1717.500000
20
2814.500000
30
0.000000
11
-1717.500000
21
2750.000000
31
0.000000
39
0.000000
0
LINE
8
_2-5_建具
6
CONTINUOUS
62
3
10
-1717.500000
20
2730.000000
30
0.000000
11
-1717.500000
21
2645.500000
31
0.000000
39
0.000000
0
LINE
8
_2-5_建具
6
CONTINUOUS
62
3
10
-1717.500000
20
2645.500000
30
0.000000
11
-1735.500000
21
2645.500000
31
0.000000
39
0.000000
0
LINE
8
_2-5_建具
6
CONTINUOUS
62
3
10
-1747.500000
20
2657.500000
30
0.000000
11
-1747.500000
21
2814.500000
31
0.000000
39
0.000000
0
LINE
8
_2-5_建具
6
CONTINUOUS
62
3
10
-1007.500000
20
2735.000000
30
0.000000
11
-1012.500000
21
2735.000000
31
0.000000
39
0.000000
0
LINE
8
_2-5_建具
6
CONTINUOUS
62
3
10
-1012.500000
20
2735.000000
30
0.000000
11
-1012.500000
21
2730.000000
31
0.000000
39
0.000000
0
LINE
8
_2-5_建具
6
CONTINUOUS
62
3
10
-1012.500000
20
2730.000000
30
0.000000
11
-1022.500000
21
2730.000000
31
0.000000
39
0.000000
0
LINE
8
_2-5_建具
6
CONTINUOUS
62
3
10
-1022.500000
20
2730.000000
30
0.000000
11
-1022.500000
21
2750.000000
31
0.000000
39
0.000000
0
LINE
8
_2-5_建具
6
CONTINUOUS
62
3
10
-1022.500000
20
2750.000000
30
0.000000
11
-1012.500000
21
2750.000000
31
0.000000
39
0.000000
0
LINE
8
_2-5_建具
6
CONTINUOUS
62
3
10
-1012.500000
20
2750.000000
30
0.000000
11
-1012.500000
21
2745.000000
31
0.000000
39
0.000000
0
LINE
8
_2-5_建具
6
CONTINUOUS
62
3
10
-1012.500000
20
2745.000000
30
0.000000
11
-1007.500000
21
2745.000000
31
0.000000
39
0.000000
0
LINE
8
_2-5_建具
6
CONTINUOUS
62
3
10
-1007.500000
20
2745.000000
30
0.000000
11
-1007.500000
21
2735.000000
31
0.000000
39
0.000000
0
LINE
8
_2-5_建具
6
CONTINUOUS
62
3
10
-1722.500000
20
2745.000000
30
0.000000
11
-1717.500000
21
2745.000000
31
0.000000
39
0.000000
0
LINE
8
_2-5_建具
6
CONTINUOUS
62
3
10
-1717.500000
20
2745.000000
30
0.000000
11
-1717.500000
21
2750.000000
31
0.000000
39
0.000000
0
LINE
8
_2-5_建具
6
CONTINUOUS
62
3
10
-1717.500000
20
2750.000000
30
0.000000
11
-1707.500000
21
2750.000000
31
0.000000
39
0.000000
0
LINE
8
_2-5_建具
6
CONTINUOUS
62
3
10
-1707.500000
20
2750.000000
30
0.000000
11
-1707.500000
21
2730.000000
31
0.000000
39
0.000000
0
LINE
8
_2-5_建具
6
CONTINUOUS
62
3
10
-1707.500000
20
2730.000000
30
0.000000
11
-1717.500000
21
2730.000000
31
0.000000
39
0.000000
0
LINE
8
_2-5_建具
6
CONTINUOUS
62
3
10
-1717.500000
20
2730.000000
30
0.000000
11
-1717.500000
21
2735.000000
31
0.000000
39
0.000000
0
LINE
8
_2-5_建具
6
CONTINUOUS
62
3
10
-1717.500000
20
2735.000000
30
0.000000
11
-1722.500000
21
2735.000000
31
0.000000
39
0.000000
0
LINE
8
_2-5_建具
6
CONTINUOUS
62
3
10
-1722.500000
20
2735.000000
30
0.000000
11
-1722.500000
21
2745.000000
31
0.000000
39
0.000000
0
LINE
8
_2-5_建具
6
CONTINUOUS
62
3
10
-6300.000000
20
1735.500000
30
0.000000
11
-6280.000000
21
1735.500000
31
0.000000
39
0.000000
0
LINE
8
_2-5_建具
6
CONTINUOUS
62
7
10
-5550.000000
20
1735.500000
30
0.000000
11
-6280.000000
21
1735.500000
31
0.000000
39
0.000000
0
LINE
8
_2-5_建具
6
CONTINUOUS
62
3
10
-5530.000000
20
1880.000000
30
0.000000
11
-5530.000000
21
1747.500000
31
0.000000
39
0.000000
0
LINE
8
_2-5_建具
6
CONTINUOUS
62
3
10
-5550.000000
20
1735.500000
30
0.000000
11
-5550.000000
21
1880.000000
31
0.000000
39
0.000000
0
LINE
8
_2-5_建具
6
CONTINUOUS
62
3
10
-5544.500000
20
1735.500000
30
0.000000
11
-5550.000000
21
1735.500000
31
0.000000
39
0.000000
0
LINE
8
_2-5_建具
6
CONTINUOUS
62
3
10
-6280.000000
20
1735.500000
30
0.000000
11
-6280.000000
21
1880.000000
31
0.000000
39
0.000000
0
LINE
8
_2-5_建具
6
CONTINUOUS
62
3
10
-6300.000000
20
1880.000000
30
0.000000
11
-6300.000000
21
1735.500000
31
0.000000
39
0.000000
0
LINE
8
_2-5_建具
6
CONTINUOUS
62
2
10
-6255.000000
20
1925.000000
30
0.000000
11
-6300.000000
21
1925.000000
31
0.000000
39
0.000000
0
LINE
8
_2-5_建具
6
CONTINUOUS
62
2
10
-6300.000000
20
1905.000000
30
0.000000
11
-6255.000000
21
1905.000000
31
0.000000
39
0.000000
0
LINE
8
_2-5_建具
6
CONTINUOUS
62
2
10
-6300.000000
20
1925.000000
30
0.000000
11
-6300.000000
21
1905.000000
31
0.000000
39
0.000000
0
LINE
8
_2-5_建具
6
CONTINUOUS
62
2
10
-6255.000000
20
1905.000000
30
0.000000
11
-6255.000000
21
1925.000000
31
0.000000
39
0.000000
0
LINE
8
_2-5_建具
6
DASHED2
62
3
10
-6300.000000
20
1915.000000
30
0.000000
11
-7110.000000
21
1915.000000
31
0.000000
39
0.000000
0
LINE
8
_2-5_建具
6
CONTINUOUS
62
3
10
-5550.000000
20
1932.500000
30
0.000000
11
-5550.000000
21
1880.000000
31
0.000000
39
0.000000
0
LINE
8
_2-5_建具
6
CONTINUOUS
62
3
10
-5520.000000
20
1932.500000
30
0.000000
11
-5520.000000
21
1880.000000
31
0.000000
39
0.000000
0
LINE
8
_2-5_建具
6
CONTINUOUS
62
3
10
-5520.000000
20
1932.500000
30
0.000000
11
-5550.000000
21
1932.500000
31
0.000000
39
0.000000
0
LINE
8
_2-5_建具
6
CONTINUOUS
62
3
10
-5520.000000
20
1880.000000
30
0.000000
11
-5550.000000
21
1880.000000
31
0.000000
39
0.000000
0
LINE
8
_2-5_建具
6
CONTINUOUS
62
2
10
-5550.000000
20
1925.000000
30
0.000000
11
-5595.000000
21
1925.000000
31
0.000000
39
0.000000
0
LINE
8
_2-5_建具
6
CONTINUOUS
62
2
10
-5595.000000
20
1905.000000
30
0.000000
11
-5550.000000
21
1905.000000
31
0.000000
39
0.000000
0
LINE
8
_2-5_建具
6
CONTINUOUS
62
2
10
-5595.000000
20
1925.000000
30
0.000000
11
-5595.000000
21
1905.000000
31
0.000000
39
0.000000
0
LINE
8
_2-5_建具
6
CONTINUOUS
62
2
10
-5550.000000
20
1905.000000
30
0.000000
11
-5550.000000
21
1925.000000
31
0.000000
39
0.000000
0
LINE
8
_2-5_建具
6
CONTINUOUS
62
3
10
-5595.000000
20
1915.000000
30
0.000000
11
-6255.000000
21
1915.000000
31
0.000000
39
0.000000
0
LINE
8
_2-5_建具
6
CONTINUOUS
62
7
10
-5550.000000
20
1880.000000
30
0.000000
11
-6280.000000
21
1880.000000
31
0.000000
39
0.000000
0
LINE
8
_2-5_建具
6
CONTINUOUS
62
3
10
-6300.000000
20
1880.000000
30
0.000000
11
-6280.000000
21
1880.000000
31
0.000000
39
0.000000
0
LINE
8
_2-5_建具
6
CONTINUOUS
62
3
10
-6310.000000
20
1880.000000
30
0.000000
11
-6300.000000
21
1880.000000
31
0.000000
39
0.000000
0
LINE
8
_2-5_建具
6
CONTINUOUS
62
3
10
-6280.000000
20
1892.500000
30
0.000000
11
-6310.000000
21
1892.500000
31
0.000000
39
0.000000
0
LINE
8
_2-5_建具
6
CONTINUOUS
62
3
10
-6280.000000
20
1892.500000
30
0.000000
11
-6280.000000
21
1880.000000
31
0.000000
39
0.000000
0
LINE
8
_2-5_建具
6
CONTINUOUS
62
3
10
-6310.000000
20
1892.500000
30
0.000000
11
-6310.000000
21
1880.000000
31
0.000000
39
0.000000
0
LINE
8
_2-5_建具
6
CONTINUOUS
62
7
10
-5912.500000
20
1520.000000
30
0.000000
11
-5912.500000
21
2120.000000
31
0.000000
39
0.000000
0
LINE
8
_2-5_建具
6
CONTINUOUS
62
7
10
-5912.500000
20
1520.000000
30
0.000000
11
-5852.500000
21
1640.000000
31
0.000000
39
0.000000
0
LINE
8
_2-5_建具
6
CONTINUOUS
62
7
10
-5912.500000
20
2120.000000
30
0.000000
11
-5972.500000
21
2000.000000
31
0.000000
39
0.000000
0
LINE
8
_2-5_建具
6
CONTINUOUS
62
7
10
-5445.500000
20
970.000000
30
0.000000
11
-5445.500000
21
240.000000
31
0.000000
39
0.000000
0
LINE
8
_2-5_建具
6
CONTINUOUS
62
7
10
-5375.500000
20
1717.500000
30
0.000000
11
-5375.500000
21
240.000000
31
0.000000
39
0.000000
0
LINE
8
_2-5_建具
6
CONTINUOUS
62
7
10
-5455.500000
20
1717.500000
30
0.000000
11
-5455.500000
21
1000.000000
31
0.000000
39
0.000000
0
LINE
8
_2-5_建具
6
CONTINUOUS
62
7
10
-5395.500000
20
1717.500000
30
0.000000
11
-5395.500000
21
970.000000
31
0.000000
39
0.000000
0
LINE
8
_2-5_建具
6
CONTINUOUS
62
7
10
-5395.500000
20
970.000000
30
0.000000
11
-5430.500000
21
970.000000
31
0.000000
39
0.000000
0
LINE
8
_2-5_建具
6
CONTINUOUS
62
7
10
-5430.500000
20
970.000000
30
0.000000
11
-5430.500000
21
1717.500000
31
0.000000
39
0.000000
0
LINE
8
_2-5_建具
6
CONTINUOUS
62
7
10
-5140.500000
20
1363.750000
30
0.000000
11
-5740.500000
21
1363.750000
31
0.000000
39
0.000000
0
LINE
8
_2-5_建具
6
CONTINUOUS
62
7
10
-5140.500000
20
1363.750000
30
0.000000
11
-5260.500000
21
1423.750000
31
0.000000
39
0.000000
0
LINE
8
_2-5_建具
6
CONTINUOUS
62
7
10
-5740.500000
20
1363.750000
30
0.000000
11
-5620.500000
21
1303.750000
31
0.000000
39
0.000000
0
LINE
8
_2-5_建具
6
DASHED2
62
3
10
-5413.000000
20
970.000000
30
0.000000
11
-5413.000000
21
252.500000
31
0.000000
39
0.000000
0
LINE
8
_2-5_建具
6
CONTINUOUS
62
3
10
-5544.500000
20
1747.500000
30
0.000000
11
-5544.500000
21
1717.500000
31
0.000000
39
0.000000
0
LINE
8
_2-5_建具
6
CONTINUOUS
62
3
10
-5544.500000
20
1717.500000
30
0.000000
11
-5375.500000
21
1717.500000
31
0.000000
39
0.000000
0
LINE
8
_2-5_建具
6
CONTINUOUS
62
3
10
-5375.500000
20
1717.500000
30
0.000000
11
-5375.500000
21
1747.500000
31
0.000000
39
0.000000
0
LINE
8
_2-5_建具
6
CONTINUOUS
62
3
10
-5375.500000
20
1747.500000
30
0.000000
11
-5544.500000
21
1747.500000
31
0.000000
39
0.000000
0
LINE
8
_2-5_建具
6
CONTINUOUS
62
3
10
-5544.500000
20
970.000000
30
0.000000
11
-5544.500000
21
1000.000000
31
0.000000
39
0.000000
0
LINE
8
_2-5_建具
6
CONTINUOUS
62
3
10
-5544.500000
20
1000.000000
30
0.000000
11
-5440.500000
21
1000.000000
31
0.000000
39
0.000000
0
LINE
8
_2-5_建具
6
CONTINUOUS
62
3
10
-5440.500000
20
1000.000000
30
0.000000
11
-5440.500000
21
970.000000
31
0.000000
39
0.000000
0
LINE
8
_2-5_建具
6
CONTINUOUS
62
3
10
-5440.500000
20
970.000000
30
0.000000
11
-5544.500000
21
970.000000
31
0.000000
39
0.000000
0
LINE
8
_2-5_建具
6
CONTINUOUS
62
3
10
-5459.500000
20
210.000000
30
0.000000
11
-5459.500000
21
240.000000
31
0.000000
39
0.000000
0
LINE
8
_2-5_建具
6
CONTINUOUS
62
3
10
-5459.500000
20
240.000000
30
0.000000
11
-5375.500000
21
240.000000
31
0.000000
39
0.000000
0
LINE
8
_2-5_建具
6
CONTINUOUS
62
3
10
-5375.500000
20
240.000000
30
0.000000
11
-5375.500000
21
210.000000
31
0.000000
39
0.000000
0
LINE
8
_2-5_建具
6
CONTINUOUS
62
3
10
-5375.500000
20
210.000000
30
0.000000
11
-5459.500000
21
210.000000
31
0.000000
39
0.000000
0
LINE
8
_2-5_建具
6
CONTINUOUS
62
3
10
-7410.000000
20
-2675.000000
30
0.000000
11
-7340.000000
21
-2675.000000
31
0.000000
39
0.000000
0
LINE
8
_2-5_建具
6
CONTINUOUS
62
7
10
-7410.000000
20
-2675.000000
30
0.000000
11
-7410.000000
21
-55.000000
31
0.000000
39
0.000000
0
LINE
8
_2-5_建具
6
CONTINUOUS
62
7
10
-7340.000000
20
-2670.000000
30
0.000000
11
-7340.000000
21
-60.000000
31
0.000000
39
0.000000
0
LINE
8
_2-5_建具
6
CONTINUOUS
62
3
10
-7410.000000
20
-2695.000000
30
0.000000
11
-7410.000000
21
-2675.000000
31
0.000000
39
0.000000
0
LINE
8
_2-5_建具
6
CONTINUOUS
62
3
10
-7410.000000
20
-55.000000
30
0.000000
11
-7340.000000
21
-55.000000
31
0.000000
39
0.000000
0
LINE
8
_2-5_建具
6
CONTINUOUS
62
3
10
-7410.000000
20
-35.000000
30
0.000000
11
-7340.000000
21
-35.000000
31
0.000000
39
0.000000
0
LINE
8
_2-5_建具
6
CONTINUOUS
62
3
10
-7410.000000
20
-35.000000
30
0.000000
11
-7410.000000
21
-55.000000
31
0.000000
39
0.000000
0
LINE
8
_2-5_建具
6
CONTINUOUS
62
3
10
-7220.000000
20
-2650.000000
30
0.000000
11
-7340.000000
21
-2650.000000
31
0.000000
39
0.000000
0
LINE
8
_2-5_建具
6
CONTINUOUS
62
3
10
-7220.000000
20
-2670.000000
30
0.000000
11
-7220.000000
21
-2650.000000
31
0.000000
39
0.000000
0
LINE
8
_2-5_建具
6
CONTINUOUS
62
3
10
-7220.000000
20
-80.000000
30
0.000000
11
-7340.000000
21
-80.000000
31
0.000000
39
0.000000
0
LINE
8
_2-5_建具
6
CONTINUOUS
62
3
10
-7220.000000
20
-60.000000
30
0.000000
11
-7220.000000
21
-80.000000
31
0.000000
39
0.000000
0
LINE
8
_2-5_建具
6
CONTINUOUS
62
2
10
-7370.000000
20
-2042.500000
30
0.000000
11
-7370.000000
21
-1997.500000
31
0.000000
39
0.000000
0
LINE
8
_2-5_建具
6
CONTINUOUS
62
2
10
-7350.000000
20
-1997.500000
30
0.000000
11
-7350.000000
21
-2042.500000
31
0.000000
39
0.000000
0
LINE
8
_2-5_建具
6
CONTINUOUS
62
2
10
-7370.000000
20
-1997.500000
30
0.000000
11
-7350.000000
21
-1997.500000
31
0.000000
39
0.000000
0
LINE
8
_2-5_建具
6
CONTINUOUS
62
2
10
-7380.000000
20
-2042.500000
30
0.000000
11
-7380.000000
21
-1997.500000
31
0.000000
39
0.000000
0
LINE
8
_2-5_建具
6
CONTINUOUS
62
2
10
-7400.000000
20
-1997.500000
30
0.000000
11
-7400.000000
21
-2042.500000
31
0.000000
39
0.000000
0
LINE
8
_2-5_建具
6
CONTINUOUS
62
2
10
-7380.000000
20
-1997.500000
30
0.000000
11
-7400.000000
21
-1997.500000
31
0.000000
39
0.000000
0
LINE
8
_2-5_建具
6
CONTINUOUS
62
2
10
-7350.000000
20
-2042.500000
30
0.000000
11
-7370.000000
21
-2042.500000
31
0.000000
39
0.000000
0
LINE
8
_2-5_建具
6
CONTINUOUS
62
2
10
-7400.000000
20
-2042.500000
30
0.000000
11
-7380.000000
21
-2042.500000
31
0.000000
39
0.000000
0
LINE
8
_2-5_建具
6
CONTINUOUS
62
2
10
-7400.000000
20
-687.500000
30
0.000000
11
-7380.000000
21
-687.500000
31
0.000000
39
0.000000
0
LINE
8
_2-5_建具
6
CONTINUOUS
62
2
10
-7380.000000
20
-732.500000
30
0.000000
11
-7400.000000
21
-732.500000
31
0.000000
39
0.000000
0
LINE
8
_2-5_建具
6
CONTINUOUS
62
2
10
-7370.000000
20
-732.500000
30
0.000000
11
-7350.000000
21
-732.500000
31
0.000000
39
0.000000
0
LINE
8
_2-5_建具
6
CONTINUOUS
62
2
10
-7370.000000
20
-687.500000
30
0.000000
11
-7370.000000
21
-732.500000
31
0.000000
39
0.000000
0
LINE
8
_2-5_建具
6
CONTINUOUS
62
2
10
-7350.000000
20
-732.500000
30
0.000000
11
-7350.000000
21
-687.500000
31
0.000000
39
0.000000
0
LINE
8
_2-5_建具
6
CONTINUOUS
62
2
10
-7380.000000
20
-687.500000
30
0.000000
11
-7380.000000
21
-732.500000
31
0.000000
39
0.000000
0
LINE
8
_2-5_建具
6
CONTINUOUS
62
2
10
-7400.000000
20
-732.500000
30
0.000000
11
-7400.000000
21
-687.500000
31
0.000000
39
0.000000
0
LINE
8
_2-5_建具
6
CONTINUOUS
62
2
10
-7350.000000
20
-687.500000
30
0.000000
11
-7370.000000
21
-687.500000
31
0.000000
39
0.000000
0
LINE
8
_2-5_建具
6
CONTINUOUS
62
7
10
-7220.000000
20
-80.000000
30
0.000000
11
-7220.000000
21
-2650.000000
31
0.000000
39
0.000000
0
LINE
8
_2-5_建具
6
CONTINUOUS
62
3
10
-7410.000000
20
-2695.000000
30
0.000000
11
-7340.000000
21
-2695.000000
31
0.000000
39
0.000000
0
LINE
8
_2-5_建具
6
CONTINUOUS
62
2
10
-7350.000000
20
-2630.000000
30
0.000000
11
-7370.000000
21
-2630.000000
31
0.000000
39
0.000000
0
LINE
8
_2-5_建具
6
CONTINUOUS
62
2
10
-7370.000000
20
-2630.000000
30
0.000000
11
-7370.000000
21
-2675.000000
31
0.000000
39
0.000000
0
LINE
8
_2-5_建具
6
CONTINUOUS
62
2
10
-7350.000000
20
-2675.000000
30
0.000000
11
-7350.000000
21
-2630.000000
31
0.000000
39
0.000000
0
LINE
8
_2-5_建具
6
CONTINUOUS
62
2
10
-7370.000000
20
-2675.000000
30
0.000000
11
-7350.000000
21
-2675.000000
31
0.000000
39
0.000000
0
LINE
8
_2-5_建具
6
CONTINUOUS
62
2
10
-7380.000000
20
-1365.000000
30
0.000000
11
-7380.000000
21
-1410.000000
31
0.000000
39
0.000000
0
LINE
8
_2-5_建具
6
CONTINUOUS
62
2
10
-7380.000000
20
-1410.000000
30
0.000000
11
-7400.000000
21
-1410.000000
31
0.000000
39
0.000000
0
LINE
8
_2-5_建具
6
CONTINUOUS
62
2
10
-7400.000000
20
-1410.000000
30
0.000000
11
-7400.000000
21
-1365.000000
31
0.000000
39
0.000000
0
LINE
8
_2-5_建具
6
CONTINUOUS
62
2
10
-7380.000000
20
-1365.000000
30
0.000000
11
-7380.000000
21
-1320.000000
31
0.000000
39
0.000000
0
LINE
8
_2-5_建具
6
CONTINUOUS
62
2
10
-7380.000000
20
-1320.000000
30
0.000000
11
-7400.000000
21
-1320.000000
31
0.000000
39
0.000000
0
LINE
8
_2-5_建具
6
CONTINUOUS
62
2
10
-7400.000000
20
-1320.000000
30
0.000000
11
-7400.000000
21
-1365.000000
31
0.000000
39
0.000000
0
LINE
8
_2-5_建具
6
CONTINUOUS
62
2
10
-7380.000000
20
-1365.000000
30
0.000000
11
-7400.000000
21
-1365.000000
31
0.000000
39
0.000000
0
LINE
8
_2-5_建具
6
CONTINUOUS
62
2
10
-7400.000000
20
-1365.000000
30
0.000000
11
-7380.000000
21
-1365.000000
31
0.000000
39
0.000000
0
LINE
8
_2-5_建具
6
CONTINUOUS
62
2
10
-7380.000000
20
-1365.000000
30
0.000000
11
-7400.000000
21
-1365.000000
31
0.000000
39
0.000000
0
LINE
8
_2-5_建具
6
CONTINUOUS
62
2
10
-7370.000000
20
-55.000000
30
0.000000
11
-7350.000000
21
-55.000000
31
0.000000
39
0.000000
0
LINE
8
_2-5_建具
6
CONTINUOUS
62
2
10
-7350.000000
20
-100.000000
30
0.000000
11
-7370.000000
21
-100.000000
31
0.000000
39
0.000000
0
LINE
8
_2-5_建具
6
CONTINUOUS
62
2
10
-7370.000000
20
-100.000000
30
0.000000
11
-7370.000000
21
-55.000000
31
0.000000
39
0.000000
0
LINE
8
_2-5_建具
6
CONTINUOUS
62
2
10
-7350.000000
20
-55.000000
30
0.000000
11
-7350.000000
21
-100.000000
31
0.000000
39
0.000000
0
LINE
8
_2-5_建具
6
CONTINUOUS
62
3
10
-7390.000000
20
-1410.000000
30
0.000000
11
-7390.000000
21
-1997.500000
31
0.000000
39
0.000000
0
LINE
8
_2-5_建具
6
CONTINUOUS
62
3
10
-7390.000000
20
-1320.000000
30
0.000000
11
-7390.000000
21
-732.500000
31
0.000000
39
0.000000
0
LINE
8
_2-5_建具
6
CONTINUOUS
62
3
10
-7360.000000
20
-2042.500000
30
0.000000
11
-7360.000000
21
-2630.000000
31
0.000000
39
0.000000
0
LINE
8
_2-5_建具
6
CONTINUOUS
62
3
10
-7360.000000
20
-687.500000
30
0.000000
11
-7360.000000
21
-100.000000
31
0.000000
39
0.000000
0
LINE
8
_2-5_建具
6
CONTINUOUS
62
7
10
-7675.000000
20
-1365.000000
30
0.000000
11
-7075.000000
21
-1365.000000
31
0.000000
39
0.000000
0
LINE
8
_2-5_建具
6
CONTINUOUS
62
7
10
-7675.000000
20
-1365.000000
30
0.000000
11
-7555.000000
21
-1425.000000
31
0.000000
39
0.000000
0
LINE
8
_2-5_建具
6
CONTINUOUS
62
7
10
-7075.000000
20
-1365.000000
30
0.000000
11
-7195.000000
21
-1305.000000
31
0.000000
39
0.000000
0
LINE
8
_2-5_建具
6
CONTINUOUS
62
7
10
-7475.000000
20
-2007.500000
30
0.000000
11
-7275.000000
21
-2007.500000
31
0.000000
39
0.000000
0
LINE
8
_2-5_建具
6
CONTINUOUS
62
7
10
-7275.000000
20
-722.500000
30
0.000000
11
-7475.000000
21
-722.500000
31
0.000000
39
0.000000
0
LINE
8
_2-5_建具
6
CONTINUOUS
62
7
10
-6472.500000
20
-72.000000
30
0.000000
11
-7177.500000
21
-72.000000
31
0.000000
39
0.000000
0
LINE
8
_2-5_建具
6
CONTINUOUS
62
7
10
-6472.500000
20
30.000000
30
0.000000
11
-7177.500000
21
30.000000
31
0.000000
39
0.000000
0
LINE
8
_2-5_建具
6
CONTINUOUS
62
3
10
-6442.500000
20
84.500000
30
0.000000
11
-6472.500000
21
84.500000
31
0.000000
39
0.000000
0
LINE
8
_2-5_建具
6
CONTINUOUS
62
3
10
-6472.500000
20
84.500000
30
0.000000
11
-6472.500000
21
-72.000000
31
0.000000
39
0.000000
0
LINE
8
_2-5_建具
6
CONTINUOUS
62
3
10
-6472.500000
20
-72.000000
30
0.000000
11
-6442.500000
21
-72.000000
31
0.000000
39
0.000000
0
LINE
8
_2-5_建具
6
CONTINUOUS
62
3
10
-6442.500000
20
-72.000000
30
0.000000
11
-6442.500000
21
84.500000
31
0.000000
39
0.000000
0
LINE
8
_2-5_建具
6
CONTINUOUS
62
3
10
-7207.500000
20
84.500000
30
0.000000
11
-7177.500000
21
84.500000
31
0.000000
39
0.000000
0
LINE
8
_2-5_建具
6
CONTINUOUS
62
3
10
-7177.500000
20
84.500000
30
0.000000
11
-7177.500000
21
-72.000000
31
0.000000
39
0.000000
0
LINE
8
_2-5_建具
6
CONTINUOUS
62
3
10
-7177.500000
20
-72.000000
30
0.000000
11
-7207.500000
21
-72.000000
31
0.000000
39
0.000000
0
LINE
8
_2-5_建具
6
CONTINUOUS
62
3
10
-7207.500000
20
-72.000000
30
0.000000
11
-7207.500000
21
84.500000
31
0.000000
39
0.000000
0
LINE
8
_2-5_建具
6
CONTINUOUS
62
7
10
-4622.000000
20
-3537.500000
30
0.000000
11
-4622.000000
21
-102.500000
31
0.000000
39
0.000000
0
LINE
8
_2-5_建具
6
CONTINUOUS
62
7
10
-4520.000000
20
-3537.500000
30
0.000000
11
-4520.000000
21
-102.500000
31
0.000000
39
0.000000
0
LINE
8
_2-5_建具
6
CONTINUOUS
62
7
10
-4571.000000
20
-3537.500000
30
0.000000
11
-4571.000000
21
-2658.750000
31
0.000000
39
0.000000
0
LINE
8
_2-5_建具
6
CONTINUOUS
62
7
10
-4571.000000
20
-2658.750000
30
0.000000
11
-4536.000000
21
-2658.750000
31
0.000000
39
0.000000
0
LINE
8
_2-5_建具
6
CONTINUOUS
62
7
10
-4536.000000
20
-2658.750000
30
0.000000
11
-4536.000000
21
-3537.500000
31
0.000000
39
0.000000
0
LINE
8
_2-5_建具
6
CONTINUOUS
62
7
10
-4606.000000
20
-2698.750000
30
0.000000
11
-4606.000000
21
-1820.000000
31
0.000000
39
0.000000
0
LINE
8
_2-5_建具
6
CONTINUOUS
62
7
10
-4571.000000
20
-2658.750000
30
0.000000
11
-4571.000000
21
-1820.000000
31
0.000000
39
0.000000
0
LINE
8
_2-5_建具
6
CONTINUOUS
62
7
10
-4571.000000
20
-2698.750000
30
0.000000
11
-4606.000000
21
-2698.750000
31
0.000000
39
0.000000
0
LINE
8
_2-5_建具
6
CONTINUOUS
62
7
10
-4536.000000
20
-102.500000
30
0.000000
11
-4536.000000
21
-981.250000
31
0.000000
39
0.000000
0
LINE
8
_2-5_建具
6
CONTINUOUS
62
7
10
-4536.000000
20
-981.250000
30
0.000000
11
-4571.000000
21
-981.250000
31
0.000000
39
0.000000
0
LINE
8
_2-5_建具
6
CONTINUOUS
62
7
10
-4571.000000
20
-981.250000
30
0.000000
11
-4571.000000
21
-102.500000
31
0.000000
39
0.000000
0
LINE
8
_2-5_建具
6
CONTINUOUS
62
7
10
-4571.000000
20
-1820.000000
30
0.000000
11
-4571.000000
21
-981.250000
31
0.000000
39
0.000000
0
LINE
8
_2-5_建具
6
CONTINUOUS
62
7
10
-4606.000000
20
-1820.000000
30
0.000000
11
-4606.000000
21
-941.250000
31
0.000000
39
0.000000
0
LINE
8
_2-5_建具
6
CONTINUOUS
62
7
10
-4606.000000
20
-941.250000
30
0.000000
11
-4571.000000
21
-941.250000
31
0.000000
39
0.000000
0
LINE
8
_2-5_建具
6
CONTINUOUS
62
7
10
-4271.000000
20
-1820.000000
30
0.000000
11
-4871.000000
21
-1820.000000
31
0.000000
39
0.000000
0
LINE
8
_2-5_建具
6
CONTINUOUS
62
7
10
-4871.000000
20
-1820.000000
30
0.000000
11
-4751.000000
21
-1880.000000
31
0.000000
39
0.000000
0
LINE
8
_2-5_建具
6
CONTINUOUS
62
7
10
-4271.000000
20
-1820.000000
30
0.000000
11
-4391.000000
21
-1760.000000
31
0.000000
39
0.000000
0
LINE
8
_2-5_建具
6
CONTINUOUS
62
7
10
-4671.000000
20
-2678.750000
30
0.000000
11
-4471.000000
21
-2678.750000
31
0.000000
39
0.000000
0
LINE
8
_2-5_建具
6
CONTINUOUS
62
7
10
-4471.000000
20
-961.250000
30
0.000000
11
-4671.000000
21
-961.250000
31
0.000000
39
0.000000
0
LINE
8
_2-5_建具
6
CONTINUOUS
62
3
10
-4465.500000
20
-3567.500000
30
0.000000
11
-4465.500000
21
-3537.500000
31
0.000000
39
0.000000
0
LINE
8
_2-5_建具
6
CONTINUOUS
62
3
10
-4465.500000
20
-3537.500000
30
0.000000
11
-4622.000000
21
-3537.500000
31
0.000000
39
0.000000
0
LINE
8
_2-5_建具
6
CONTINUOUS
62
3
10
-4622.000000
20
-3537.500000
30
0.000000
11
-4622.000000
21
-3567.500000
31
0.000000
39
0.000000
0
LINE
8
_2-5_建具
6
CONTINUOUS
62
3
10
-4622.000000
20
-3567.500000
30
0.000000
11
-4465.500000
21
-3567.500000
31
0.000000
39
0.000000
0
LINE
8
_2-5_建具
6
CONTINUOUS
62
3
10
-4465.500000
20
-72.500000
30
0.000000
11
-4465.500000
21
-102.500000
31
0.000000
39
0.000000
0
LINE
8
_2-5_建具
6
CONTINUOUS
62
3
10
-4465.500000
20
-102.500000
30
0.000000
11
-4622.000000
21
-102.500000
31
0.000000
39
0.000000
0
LINE
8
_2-5_建具
6
CONTINUOUS
62
3
10
-4622.000000
20
-102.500000
30
0.000000
11
-4622.000000
21
-72.500000
31
0.000000
39
0.000000
0
LINE
8
_2-5_建具
6
CONTINUOUS
62
3
10
-4622.000000
20
-72.500000
30
0.000000
11
-4465.500000
21
-72.500000
31
0.000000
39
0.000000
0
LINE
8
_2-5_建具
6
CONTINUOUS
62
7
10
-948.500000
20
-1730.000000
30
0.000000
11
-948.500000
21
-102.500000
31
0.000000
39
0.000000
0
LINE
8
_2-5_建具
6
CONTINUOUS
62
7
10
-871.500000
20
-1730.000000
30
0.000000
11
-871.500000
21
-102.500000
31
0.000000
39
0.000000
0
LINE
8
_2-5_建具
6
CONTINUOUS
62
7
10
-945.000000
20
-1730.000000
30
0.000000
11
-945.000000
21
-896.250000
31
0.000000
39
0.000000
0
LINE
8
_2-5_建具
6
CONTINUOUS
62
7
10
-945.000000
20
-896.250000
30
0.000000
11
-910.000000
21
-896.250000
31
0.000000
39
0.000000
0
LINE
8
_2-5_建具
6
CONTINUOUS
62
7
10
-910.000000
20
-896.250000
30
0.000000
11
-910.000000
21
-1730.000000
31
0.000000
39
0.000000
0
LINE
8
_2-5_建具
6
CONTINUOUS
62
7
10
-910.000000
20
-102.500000
30
0.000000
11
-910.000000
21
-896.250000
31
0.000000
39
0.000000
0
LINE
8
_2-5_建具
6
CONTINUOUS
62
7
10
-875.000000
20
-102.500000
30
0.000000
11
-875.000000
21
-936.250000
31
0.000000
39
0.000000
0
LINE
8
_2-5_建具
6
CONTINUOUS
62
7
10
-875.000000
20
-936.250000
30
0.000000
11
-910.000000
21
-936.250000
31
0.000000
39
0.000000
0
LINE
8
_2-5_建具
6
CONTINUOUS
62
7
10
-1210.000000
20
-916.250000
30
0.000000
11
-610.000000
21
-916.250000
31
0.000000
39
0.000000
0
LINE
8
_2-5_建具
6
CONTINUOUS
62
7
10
-1210.000000
20
-916.250000
30
0.000000
11
-1090.000000
21
-976.250000
31
0.000000
39
0.000000
0
LINE
8
_2-5_建具
6
CONTINUOUS
62
7
10
-610.000000
20
-916.250000
30
0.000000
11
-730.000000
21
-856.250000
31
0.000000
39
0.000000
0
LINE
8
_2-5_建具
6
CONTINUOUS
62
3
10
-825.500000
20
-1760.000000
30
0.000000
11
-825.500000
21
-1730.000000
31
0.000000
39
0.000000
0
LINE
8
_2-5_建具
6
CONTINUOUS
62
3
10
-825.500000
20
-1730.000000
30
0.000000
11
-994.500000
21
-1730.000000
31
0.000000
39
0.000000
0
LINE
8
_2-5_建具
6
CONTINUOUS
62
3
10
-994.500000
20
-1730.000000
30
0.000000
11
-994.500000
21
-1760.000000
31
0.000000
39
0.000000
0
LINE
8
_2-5_建具
6
CONTINUOUS
62
3
10
-994.500000
20
-1760.000000
30
0.000000
11
-970.000000
21
-1760.000000
31
0.000000
39
0.000000
0
LINE
8
_2-5_建具
6
CONTINUOUS
62
3
10
-850.000000
20
-1760.000000
30
0.000000
11
-825.500000
21
-1760.000000
31
0.000000
39
0.000000
0
LINE
8
_2-5_建具
6
CONTINUOUS
62
3
10
-825.500000
20
-72.500000
30
0.000000
11
-825.500000
21
-102.500000
31
0.000000
39
0.000000
0
LINE
8
_2-5_建具
6
CONTINUOUS
62
3
10
-825.500000
20
-102.500000
30
0.000000
11
-994.500000
21
-102.500000
31
0.000000
39
0.000000
0
LINE
8
_2-5_建具
6
CONTINUOUS
62
3
10
-994.500000
20
-102.500000
30
0.000000
11
-994.500000
21
-72.500000
31
0.000000
39
0.000000
0
LINE
8
_2-5_建具
6
CONTINUOUS
62
3
10
-994.500000
20
-72.500000
30
0.000000
11
-825.500000
21
-72.500000
31
0.000000
39
0.000000
0
LINE
8
_2-5_建具
6
CONTINUOUS
62
3
10
2829.000000
20
3620.000000
30
0.000000
11
2829.000000
21
3580.000000
31
0.000000
39
0.000000
0
LINE
8
_2-5_建具
6
CONTINUOUS
62
3
10
2829.000000
20
3580.000000
30
0.000000
11
2799.000000
21
3580.000000
31
0.000000
39
0.000000
0
LINE
8
_2-5_建具
6
CONTINUOUS
62
3
10
2799.000000
20
3580.000000
30
0.000000
11
2799.000000
21
3620.000000
31
0.000000
39
0.000000
0
LINE
8
_2-5_建具
6
CONTINUOUS
62
3
10
2799.000000
20
3620.000000
30
0.000000
11
2859.000000
21
3620.000000
31
0.000000
39
0.000000
0
LINE
8
_2-5_建具
6
CONTINUOUS
62
3
10
2859.000000
20
3620.000000
30
0.000000
11
2859.000000
21
3580.000000
31
0.000000
39
0.000000
0
LINE
8
_2-5_建具
6
CONTINUOUS
62
3
10
2829.000000
20
930.000000
30
0.000000
11
2829.000000
21
970.000000
31
0.000000
39
0.000000
0
LINE
8
_2-5_建具
6
CONTINUOUS
62
3
10
2829.000000
20
970.000000
30
0.000000
11
2799.000000
21
970.000000
31
0.000000
39
0.000000
0
LINE
8
_2-5_建具
6
CONTINUOUS
62
3
10
2799.000000
20
970.000000
30
0.000000
11
2799.000000
21
930.000000
31
0.000000
39
0.000000
0
LINE
8
_2-5_建具
6
CONTINUOUS
62
3
10
2799.000000
20
930.000000
30
0.000000
11
2859.000000
21
930.000000
31
0.000000
39
0.000000
0
LINE
8
_2-5_建具
6
CONTINUOUS
62
3
10
2859.000000
20
930.000000
30
0.000000
11
2859.000000
21
970.000000
31
0.000000
39
0.000000
0
LINE
8
_2-5_建具
6
CONTINUOUS
62
3
10
2844.000000
20
3620.000000
30
0.000000
11
2844.000000
21
930.000000
31
0.000000
39
0.000000
0
LINE
8
_2-3_仕上
6
CONTINUOUS
62
7
10
2657.500000
20
3590.000000
30
0.000000
11
2670.000000
21
3590.000000
31
0.000000
39
0.000000
0
LINE
8
_2-3_仕上
6
CONTINUOUS
62
7
10
2790.000000
20
3590.000000
30
0.000000
11
2799.000000
21
3590.000000
31
0.000000
39
0.000000
0
LINE
8
_2-3_仕上
6
CONTINUOUS
62
7
10
2799.000000
20
960.000000
30
0.000000
11
2790.000000
21
960.000000
31
0.000000
39
0.000000
0
LINE
8
_2-3_仕上
6
CONTINUOUS
62
7
10
2670.000000
20
960.000000
30
0.000000
11
2657.500000
21
960.000000
31
0.000000
39
0.000000
0
LINE
8
_2-5_建具
6
CONTINUOUS
62
7
10
3030.000000
20
2275.000000
30
0.000000
11
2430.000000
21
2275.000000
31
0.000000
39
0.000000
0
LINE
8
_2-5_建具
6
CONTINUOUS
62
7
10
3030.000000
20
2275.000000
30
0.000000
11
2910.000000
21
2335.000000
31
0.000000
39
0.000000
0
LINE
8
_2-5_建具
6
CONTINUOUS
62
7
10
2430.000000
20
2275.000000
30
0.000000
11
2550.000000
21
2215.000000
31
0.000000
39
0.000000
0
LINE
8
_2-5_建具
6
CONTINUOUS
62
3
10
2829.000000
20
-930.000000
30
0.000000
11
2829.000000
21
-970.000000
31
0.000000
39
0.000000
0
LINE
8
_2-5_建具
6
CONTINUOUS
62
3
10
2829.000000
20
-970.000000
30
0.000000
11
2799.000000
21
-970.000000
31
0.000000
39
0.000000
0
LINE
8
_2-5_建具
6
CONTINUOUS
62
3
10
2799.000000
20
-970.000000
30
0.000000
11
2799.000000
21
-930.000000
31
0.000000
39
0.000000
0
LINE
8
_2-5_建具
6
CONTINUOUS
62
3
10
2799.000000
20
-930.000000
30
0.000000
11
2859.000000
21
-930.000000
31
0.000000
39
0.000000
0
LINE
8
_2-5_建具
6
CONTINUOUS
62
3
10
2859.000000
20
-930.000000
30
0.000000
11
2859.000000
21
-970.000000
31
0.000000
39
0.000000
0
LINE
8
_2-5_建具
6
CONTINUOUS
62
3
10
2829.000000
20
-3620.000000
30
0.000000
11
2829.000000
21
-3580.000000
31
0.000000
39
0.000000
0
LINE
8
_2-5_建具
6
CONTINUOUS
62
3
10
2829.000000
20
-3580.000000
30
0.000000
11
2799.000000
21
-3580.000000
31
0.000000
39
0.000000
0
LINE
8
_2-5_建具
6
CONTINUOUS
62
3
10
2799.000000
20
-3580.000000
30
0.000000
11
2799.000000
21
-3620.000000
31
0.000000
39
0.000000
0
LINE
8
_2-5_建具
6
CONTINUOUS
62
3
10
2799.000000
20
-3620.000000
30
0.000000
11
2859.000000
21
-3620.000000
31
0.000000
39
0.000000
0
LINE
8
_2-5_建具
6
CONTINUOUS
62
3
10
2859.000000
20
-3620.000000
30
0.000000
11
2859.000000
21
-3580.000000
31
0.000000
39
0.000000
0
LINE
8
_2-5_建具
6
CONTINUOUS
62
3
10
2844.000000
20
-930.000000
30
0.000000
11
2844.000000
21
-3620.000000
31
0.000000
39
0.000000
0
LINE
8
_2-3_仕上
6
CONTINUOUS
62
7
10
2657.500000
20
-960.000000
30
0.000000
11
2670.000000
21
-960.000000
31
0.000000
39
0.000000
0
LINE
8
_2-3_仕上
6
CONTINUOUS
62
7
10
2790.000000
20
-960.000000
30
0.000000
11
2799.000000
21
-960.000000
31
0.000000
39
0.000000
0
LINE
8
_2-3_仕上
6
CONTINUOUS
62
7
10
2799.000000
20
-3590.000000
30
0.000000
11
2790.000000
21
-3590.000000
31
0.000000
39
0.000000
0
LINE
8
_2-3_仕上
6
CONTINUOUS
62
7
10
2670.000000
20
-3590.000000
30
0.000000
11
2657.500000
21
-3590.000000
31
0.000000
39
0.000000
0
LINE
8
_2-5_建具
6
CONTINUOUS
62
7
10
3030.000000
20
-2275.000000
30
0.000000
11
2430.000000
21
-2275.000000
31
0.000000
39
0.000000
0
LINE
8
_2-5_建具
6
CONTINUOUS
62
7
10
3030.000000
20
-2275.000000
30
0.000000
11
2910.000000
21
-2215.000000
31
0.000000
39
0.000000
0
LINE
8
_2-5_建具
6
CONTINUOUS
62
7
10
2430.000000
20
-2275.000000
30
0.000000
11
2550.000000
21
-2335.000000
31
0.000000
39
0.000000
0
LINE
8
_2-5_建具
6
CONTINUOUS
62
7
10
-1765.000000
20
1910.000000
30
0.000000
11
-1765.000000
21
2627.500000
31
0.000000
39
0.000000
0
LINE
8
_2-5_建具
6
CONTINUOUS
62
7
10
-1842.000000
20
1910.000000
30
0.000000
11
-1842.000000
21
2627.500000
31
0.000000
39
0.000000
0
LINE
8
_2-5_建具
6
CONTINUOUS
62
7
10
-1735.500000
20
1910.000000
30
0.000000
11
-1426.250000
21
1910.000000
31
0.000000
39
0.000000
0
LINE
8
_2-5_建具
6
CONTINUOUS
62
7
10
-1785.000000
20
1945.000000
30
0.000000
11
-1426.250000
21
1945.000000
31
0.000000
39
0.000000
0
LINE
8
_2-5_建具
6
CONTINUOUS
62
7
10
-1820.000000
20
1920.000000
30
0.000000
11
-1820.000000
21
2268.750000
31
0.000000
39
0.000000
0
LINE
8
_2-5_建具
6
CONTINUOUS
62
7
10
-1785.000000
20
2268.750000
30
0.000000
11
-1785.000000
21
1910.000000
31
0.000000
39
0.000000
0
LINE
8
_2-5_建具
6
CONTINUOUS
62
7
10
-1735.500000
20
2627.500000
30
0.000000
11
-1426.250000
21
2627.500000
31
0.000000
39
0.000000
0
LINE
8
_2-5_建具
6
CONTINUOUS
62
7
10
-1785.000000
20
2592.500000
30
0.000000
11
-1426.250000
21
2592.500000
31
0.000000
39
0.000000
0
LINE
8
_2-5_建具
6
CONTINUOUS
62
7
10
-1785.000000
20
2627.500000
30
0.000000
11
-1785.000000
21
2268.750000
31
0.000000
39
0.000000
0
LINE
8
_2-5_建具
6
CONTINUOUS
62
7
10
-1820.000000
20
2268.750000
30
0.000000
11
-1820.000000
21
2617.500000
31
0.000000
39
0.000000
0
LINE
8
_2-5_建具
6
CONTINUOUS
62
7
10
-1530.000000
20
2268.750000
30
0.000000
11
-2130.000000
21
2268.750000
31
0.000000
39
0.000000
0
LINE
8
_2-5_建具
6
CONTINUOUS
62
7
10
-2130.000000
20
2268.750000
30
0.000000
11
-2010.000000
21
2208.750000
31
0.000000
39
0.000000
0
LINE
8
_2-5_建具
6
CONTINUOUS
62
7
10
-1530.000000
20
2268.750000
30
0.000000
11
-1650.000000
21
2328.750000
31
0.000000
39
0.000000
0
LINE
8
_2-5_建具
6
CONTINUOUS
62
3
10
-1904.500000
20
1880.000000
30
0.000000
11
-1904.500000
21
1910.000000
31
0.000000
39
0.000000
0
LINE
8
_2-5_建具
6
CONTINUOUS
62
3
10
-1904.500000
20
1910.000000
30
0.000000
11
-1840.000000
21
1910.000000
31
0.000000
39
0.000000
0
LINE
8
_2-5_建具
6
CONTINUOUS
62
3
10
-1820.000000
20
1910.000000
30
0.000000
11
-1735.500000
21
1910.000000
31
0.000000
39
0.000000
0
LINE
8
_2-5_建具
6
CONTINUOUS
62
3
10
-1735.500000
20
1910.000000
30
0.000000
11
-1735.500000
21
1880.000000
31
0.000000
39
0.000000
0
LINE
8
_2-5_建具
6
CONTINUOUS
62
3
10
-1735.500000
20
1880.000000
30
0.000000
11
-1904.500000
21
1880.000000
31
0.000000
39
0.000000
0
LINE
8
_2-5_建具
6
CONTINUOUS
62
3
10
-1904.500000
20
2657.500000
30
0.000000
11
-1904.500000
21
2627.500000
31
0.000000
39
0.000000
0
LINE
8
_2-5_建具
6
CONTINUOUS
62
3
10
-1904.500000
20
2627.500000
30
0.000000
11
-1840.000000
21
2627.500000
31
0.000000
39
0.000000
0
LINE
8
_2-5_建具
6
CONTINUOUS
62
3
10
-1820.000000
20
2627.500000
30
0.000000
11
-1735.500000
21
2627.500000
31
0.000000
39
0.000000
0
LINE
8
_2-5_建具
6
CONTINUOUS
62
3
10
-1735.500000
20
2627.500000
30
0.000000
11
-1735.500000
21
2657.500000
31
0.000000
39
0.000000
0
LINE
8
_2-5_建具
6
CONTINUOUS
62
3
10
-1735.500000
20
2657.500000
30
0.000000
11
-1904.500000
21
2657.500000
31
0.000000
39
0.000000
0
LINE
8
_2-5_建具
6
CONTINUOUS
62
3
10
-1835.000000
20
1905.000000
30
0.000000
11
-1835.000000
21
1910.000000
31
0.000000
39
0.000000
0
LINE
8
_2-5_建具
6
CONTINUOUS
62
3
10
-1835.000000
20
1910.000000
30
0.000000
11
-1840.000000
21
1910.000000
31
0.000000
39
0.000000
0
LINE
8
_2-5_建具
6
CONTINUOUS
62
3
10
-1840.000000
20
1910.000000
30
0.000000
11
-1840.000000
21
1920.000000
31
0.000000
39
0.000000
0
LINE
8
_2-5_建具
6
CONTINUOUS
62
3
10
-1840.000000
20
1920.000000
30
0.000000
11
-1820.000000
21
1920.000000
31
0.000000
39
0.000000
0
LINE
8
_2-5_建具
6
CONTINUOUS
62
3
10
-1820.000000
20
1920.000000
30
0.000000
11
-1820.000000
21
1910.000000
31
0.000000
39
0.000000
0
LINE
8
_2-5_建具
6
CONTINUOUS
62
3
10
-1820.000000
20
1910.000000
30
0.000000
11
-1825.000000
21
1910.000000
31
0.000000
39
0.000000
0
LINE
8
_2-5_建具
6
CONTINUOUS
62
3
10
-1825.000000
20
1910.000000
30
0.000000
11
-1825.000000
21
1905.000000
31
0.000000
39
0.000000
0
LINE
8
_2-5_建具
6
CONTINUOUS
62
3
10
-1825.000000
20
1905.000000
30
0.000000
11
-1835.000000
21
1905.000000
31
0.000000
39
0.000000
0
LINE
8
_2-5_建具
6
CONTINUOUS
62
3
10
-1825.000000
20
2632.500000
30
0.000000
11
-1825.000000
21
2627.500000
31
0.000000
39
0.000000
0
LINE
8
_2-5_建具
6
CONTINUOUS
62
3
10
-1825.000000
20
2627.500000
30
0.000000
11
-1820.000000
21
2627.500000
31
0.000000
39
0.000000
0
LINE
8
_2-5_建具
6
CONTINUOUS
62
3
10
-1820.000000
20
2627.500000
30
0.000000
11
-1820.000000
21
2617.500000
31
0.000000
39
0.000000
0
LINE
8
_2-5_建具
6
CONTINUOUS
62
3
10
-1820.000000
20
2617.500000
30
0.000000
11
-1840.000000
21
2617.500000
31
0.000000
39
0.000000
0
LINE
8
_2-5_建具
6
CONTINUOUS
62
3
10
-1840.000000
20
2617.500000
30
0.000000
11
-1840.000000
21
2627.500000
31
0.000000
39
0.000000
0
LINE
8
_2-5_建具
6
CONTINUOUS
62
3
10
-1840.000000
20
2627.500000
30
0.000000
11
-1835.000000
21
2627.500000
31
0.000000
39
0.000000
0
LINE
8
_2-5_建具
6
CONTINUOUS
62
3
10
-1835.000000
20
2627.500000
30
0.000000
11
-1835.000000
21
2632.500000
31
0.000000
39
0.000000
0
LINE
8
_2-5_建具
6
CONTINUOUS
62
3
10
-1835.000000
20
2632.500000
30
0.000000
11
-1825.000000
21
2632.500000
31
0.000000
39
0.000000
0
LINE
8
_2-4_雑仕上
6
DASHED1
62
7
10
-837.500000
20
-837.500000
30
0.000000
11
837.500000
21
-837.500000
31
0.000000
39
0.000000
0
LINE
8
_2-4_雑仕上
6
DASHED1
62
7
10
-837.500000
20
-982.500000
30
0.000000
11
837.500000
21
-982.500000
31
0.000000
39
0.000000
0
LINE
8
_2-2_柱
6
CONTINUOUS
62
2
10
-7340.000000
20
-3580.000000
30
0.000000
11
-7340.000000
21
-3700.000000
31
0.000000
39
0.000000
0
LINE
8
_2-2_柱
6
CONTINUOUS
62
2
10
-7340.000000
20
-3700.000000
30
0.000000
11
-7220.000000
21
-3700.000000
31
0.000000
39
0.000000
0
LINE
8
_2-2_柱
6
CONTINUOUS
62
2
10
-7220.000000
20
-3700.000000
30
0.000000
11
-7220.000000
21
-3580.000000
31
0.000000
39
0.000000
0
LINE
8
_2-2_柱
6
CONTINUOUS
62
2
10
-7220.000000
20
-3580.000000
30
0.000000
11
-7340.000000
21
-3580.000000
31
0.000000
39
0.000000
0
LINE
8
_2-2_柱
6
CONTINUOUS
62
2
10
-7233.933983
20
-3700.000000
30
0.000000
11
-7220.000000
21
-3686.066017
31
0.000000
39
0.000000
0
LINE
8
_2-2_柱
6
CONTINUOUS
62
2
10
-7255.147186
20
-3700.000000
30
0.000000
11
-7220.000000
21
-3664.852814
31
0.000000
39
0.000000
0
LINE
8
_2-2_柱
6
CONTINUOUS
62
2
10
-7276.360390
20
-3700.000000
30
0.000000
11
-7220.000000
21
-3643.639610
31
0.000000
39
0.000000
0
LINE
8
_2-2_柱
6
CONTINUOUS
62
2
10
-7297.573593
20
-3700.000000
30
0.000000
11
-7220.000000
21
-3622.426407
31
0.000000
39
0.000000
0
LINE
8
_2-2_柱
6
CONTINUOUS
62
2
10
-7318.786797
20
-3700.000000
30
0.000000
11
-7220.000000
21
-3601.213203
31
0.000000
39
0.000000
0
LINE
8
_2-2_柱
6
CONTINUOUS
62
2
10
-7340.000000
20
-3700.000000
30
0.000000
11
-7220.000000
21
-3580.000000
31
0.000000
39
0.000000
0
LINE
8
_2-2_柱
6
CONTINUOUS
62
2
10
-7340.000000
20
-3678.786797
30
0.000000
11
-7241.213203
21
-3580.000000
31
0.000000
39
0.000000
0
LINE
8
_2-2_柱
6
CONTINUOUS
62
2
10
-7340.000000
20
-3657.573593
30
0.000000
11
-7262.426407
21
-3580.000000
31
0.000000
39
0.000000
0
LINE
8
_2-2_柱
6
CONTINUOUS
62
2
10
-7340.000000
20
-3636.360390
30
0.000000
11
-7283.639610
21
-3580.000000
31
0.000000
39
0.000000
0
LINE
8
_2-2_柱
6
CONTINUOUS
62
2
10
-7340.000000
20
-3615.147186
30
0.000000
11
-7304.852814
21
-3580.000000
31
0.000000
39
0.000000
0
LINE
8
_2-2_柱
6
CONTINUOUS
62
2
10
-7340.000000
20
-3593.933983
30
0.000000
11
-7326.066017
21
-3580.000000
31
0.000000
39
0.000000
0
LINE
8
_2-2_柱
6
CONTINUOUS
62
2
10
-7406.000000
20
-3514.000000
30
0.000000
11
-7406.000000
21
-3766.000000
31
0.000000
39
0.000000
0
LINE
8
_2-2_柱
6
CONTINUOUS
62
2
10
-7406.000000
20
-3766.000000
30
0.000000
11
-7154.000000
21
-3766.000000
31
0.000000
39
0.000000
0
LINE
8
_2-2_柱
6
CONTINUOUS
62
2
10
-7154.000000
20
-3766.000000
30
0.000000
11
-7154.000000
21
-3514.000000
31
0.000000
39
0.000000
0
LINE
8
_2-2_柱
6
CONTINUOUS
62
2
10
-7154.000000
20
-3514.000000
30
0.000000
11
-7406.000000
21
-3514.000000
31
0.000000
39
0.000000
0
LINE
8
_2-2_柱
6
CONTINUOUS
62
2
10
-970.000000
20
-3580.000000
30
0.000000
11
-970.000000
21
-3700.000000
31
0.000000
39
0.000000
0
LINE
8
_2-2_柱
6
CONTINUOUS
62
2
10
-970.000000
20
-3700.000000
30
0.000000
11
-850.000000
21
-3700.000000
31
0.000000
39
0.000000
0
LINE
8
_2-2_柱
6
CONTINUOUS
62
2
10
-850.000000
20
-3700.000000
30
0.000000
11
-850.000000
21
-3580.000000
31
0.000000
39
0.000000
0
LINE
8
_2-2_柱
6
CONTINUOUS
62
2
10
-850.000000
20
-3580.000000
30
0.000000
11
-970.000000
21
-3580.000000
31
0.000000
39
0.000000
0
LINE
8
_2-2_柱
6
CONTINUOUS
62
7
10
-970.000000
20
-3580.000000
30
0.000000
11
-850.000000
21
-3700.000000
31
0.000000
39
0.000000
0
LINE
8
_2-2_柱
6
CONTINUOUS
62
7
10
-970.000000
20
-3700.000000
30
0.000000
11
-850.000000
21
-3580.000000
31
0.000000
39
0.000000
0
LINE
8
_2-2_柱
6
CONTINUOUS
62
2
10
-1036.000000
20
-3514.000000
30
0.000000
11
-1036.000000
21
-3766.000000
31
0.000000
39
0.000000
0
LINE
8
_2-2_柱
6
CONTINUOUS
62
2
10
-1036.000000
20
-3766.000000
30
0.000000
11
-784.000000
21
-3766.000000
31
0.000000
39
0.000000
0
LINE
8
_2-2_柱
6
CONTINUOUS
62
2
10
-784.000000
20
-3766.000000
30
0.000000
11
-784.000000
21
-3514.000000
31
0.000000
39
0.000000
0
LINE
8
_2-2_柱
6
CONTINUOUS
62
2
10
-784.000000
20
-3514.000000
30
0.000000
11
-1036.000000
21
-3514.000000
31
0.000000
39
0.000000
0
LINE
8
_2-2_柱
6
CONTINUOUS
62
2
10
2670.000000
20
-850.000000
30
0.000000
11
2670.000000
21
-970.000000
31
0.000000
39
0.000000
0
LINE
8
_2-2_柱
6
CONTINUOUS
62
2
10
2670.000000
20
-970.000000
30
0.000000
11
2790.000000
21
-970.000000
31
0.000000
39
0.000000
0
LINE
8
_2-2_柱
6
CONTINUOUS
62
2
10
2790.000000
20
-970.000000
30
0.000000
11
2790.000000
21
-850.000000
31
0.000000
39
0.000000
0
LINE
8
_2-2_柱
6
CONTINUOUS
62
2
10
2790.000000
20
-850.000000
30
0.000000
11
2670.000000
21
-850.000000
31
0.000000
39
0.000000
0
LINE
8
_2-2_柱
6
CONTINUOUS
62
7
10
2670.000000
20
-850.000000
30
0.000000
11
2790.000000
21
-970.000000
31
0.000000
39
0.000000
0
LINE
8
_2-2_柱
6
CONTINUOUS
62
7
10
2670.000000
20
-970.000000
30
0.000000
11
2790.000000
21
-850.000000
31
0.000000
39
0.000000
0
LINE
8
_2-2_柱
6
CONTINUOUS
62
2
10
2604.000000
20
-784.000000
30
0.000000
11
2604.000000
21
-1036.000000
31
0.000000
39
0.000000
0
LINE
8
_2-2_柱
6
CONTINUOUS
62
2
10
2604.000000
20
-1036.000000
30
0.000000
11
2856.000000
21
-1036.000000
31
0.000000
39
0.000000
0
LINE
8
_2-2_柱
6
CONTINUOUS
62
2
10
2856.000000
20
-1036.000000
30
0.000000
11
2856.000000
21
-784.000000
31
0.000000
39
0.000000
0
LINE
8
_2-2_柱
6
CONTINUOUS
62
2
10
2856.000000
20
-784.000000
30
0.000000
11
2604.000000
21
-784.000000
31
0.000000
39
0.000000
0
LINE
8
_2-2_柱
6
CONTINUOUS
62
2
10
2670.000000
20
3700.000000
30
0.000000
11
2670.000000
21
3580.000000
31
0.000000
39
0.000000
0
LINE
8
_2-2_柱
6
CONTINUOUS
62
2
10
2670.000000
20
3580.000000
30
0.000000
11
2790.000000
21
3580.000000
31
0.000000
39
0.000000
0
LINE
8
_2-2_柱
6
CONTINUOUS
62
2
10
2790.000000
20
3580.000000
30
0.000000
11
2790.000000
21
3700.000000
31
0.000000
39
0.000000
0
LINE
8
_2-2_柱
6
CONTINUOUS
62
2
10
2790.000000
20
3700.000000
30
0.000000
11
2670.000000
21
3700.000000
31
0.000000
39
0.000000
0
LINE
8
_2-2_柱
6
CONTINUOUS
62
7
10
2670.000000
20
3700.000000
30
0.000000
11
2790.000000
21
3580.000000
31
0.000000
39
0.000000
0
LINE
8
_2-2_柱
6
CONTINUOUS
62
7
10
2670.000000
20
3580.000000
30
0.000000
11
2790.000000
21
3700.000000
31
0.000000
39
0.000000
0
LINE
8
_2-2_柱
6
CONTINUOUS
62
2
10
2604.000000
20
3766.000000
30
0.000000
11
2604.000000
21
3514.000000
31
0.000000
39
0.000000
0
LINE
8
_2-2_柱
6
CONTINUOUS
62
2
10
2604.000000
20
3514.000000
30
0.000000
11
2856.000000
21
3514.000000
31
0.000000
39
0.000000
0
LINE
8
_2-2_柱
6
CONTINUOUS
62
2
10
2856.000000
20
3514.000000
30
0.000000
11
2856.000000
21
3766.000000
31
0.000000
39
0.000000
0
LINE
8
_2-2_柱
6
CONTINUOUS
62
2
10
2856.000000
20
3766.000000
30
0.000000
11
2604.000000
21
3766.000000
31
0.000000
39
0.000000
0
LINE
8
_2-2_柱
6
CONTINUOUS
62
2
10
-7340.000000
20
3700.000000
30
0.000000
11
-7340.000000
21
3580.000000
31
0.000000
39
0.000000
0
LINE
8
_2-2_柱
6
CONTINUOUS
62
2
10
-7340.000000
20
3580.000000
30
0.000000
11
-7220.000000
21
3580.000000
31
0.000000
39
0.000000
0
LINE
8
_2-2_柱
6
CONTINUOUS
62
2
10
-7220.000000
20
3580.000000
30
0.000000
11
-7220.000000
21
3700.000000
31
0.000000
39
0.000000
0
LINE
8
_2-2_柱
6
CONTINUOUS
62
2
10
-7220.000000
20
3700.000000
30
0.000000
11
-7340.000000
21
3700.000000
31
0.000000
39
0.000000
0
LINE
8
_2-2_柱
6
CONTINUOUS
62
7
10
-7340.000000
20
3700.000000
30
0.000000
11
-7220.000000
21
3580.000000
31
0.000000
39
0.000000
0
LINE
8
_2-2_柱
6
CONTINUOUS
62
7
10
-7340.000000
20
3580.000000
30
0.000000
11
-7220.000000
21
3700.000000
31
0.000000
39
0.000000
0
LINE
8
_2-2_柱
6
CONTINUOUS
62
2
10
-7406.000000
20
3766.000000
30
0.000000
11
-7406.000000
21
3514.000000
31
0.000000
39
0.000000
0
LINE
8
_2-2_柱
6
CONTINUOUS
62
2
10
-7406.000000
20
3514.000000
30
0.000000
11
-7154.000000
21
3514.000000
31
0.000000
39
0.000000
0
LINE
8
_2-2_柱
6
CONTINUOUS
62
2
10
-7154.000000
20
3514.000000
30
0.000000
11
-7154.000000
21
3766.000000
31
0.000000
39
0.000000
0
LINE
8
_2-2_柱
6
CONTINUOUS
62
2
10
-7154.000000
20
3766.000000
30
0.000000
11
-7406.000000
21
3766.000000
31
0.000000
39
0.000000
0
LINE
8
_2-2_柱
6
CONTINUOUS
62
2
10
-7340.000000
20
1880.000000
30
0.000000
11
-7340.000000
21
1760.000000
31
0.000000
39
0.000000
0
LINE
8
_2-2_柱
6
CONTINUOUS
62
2
10
-7340.000000
20
1760.000000
30
0.000000
11
-7220.000000
21
1760.000000
31
0.000000
39
0.000000
0
LINE
8
_2-2_柱
6
CONTINUOUS
62
2
10
-7220.000000
20
1760.000000
30
0.000000
11
-7220.000000
21
1880.000000
31
0.000000
39
0.000000
0
LINE
8
_2-2_柱
6
CONTINUOUS
62
2
10
-7220.000000
20
1880.000000
30
0.000000
11
-7340.000000
21
1880.000000
31
0.000000
39
0.000000
0
LINE
8
_2-2_柱
6
CONTINUOUS
62
7
10
-7340.000000
20
1880.000000
30
0.000000
11
-7220.000000
21
1760.000000
31
0.000000
39
0.000000
0
LINE
8
_2-2_柱
6
CONTINUOUS
62
7
10
-7340.000000
20
1760.000000
30
0.000000
11
-7220.000000
21
1880.000000
31
0.000000
39
0.000000
0
LINE
8
_2-2_柱
6
CONTINUOUS
62
2
10
-5520.000000
20
1880.000000
30
0.000000
11
-5520.000000
21
1760.000000
31
0.000000
39
0.000000
0
LINE
8
_2-2_柱
6
CONTINUOUS
62
2
10
-5520.000000
20
1760.000000
30
0.000000
11
-5400.000000
21
1760.000000
31
0.000000
39
0.000000
0
LINE
8
_2-2_柱
6
CONTINUOUS
62
2
10
-5400.000000
20
1760.000000
30
0.000000
11
-5400.000000
21
1880.000000
31
0.000000
39
0.000000
0
LINE
8
_2-2_柱
6
CONTINUOUS
62
2
10
-5400.000000
20
1880.000000
30
0.000000
11
-5520.000000
21
1880.000000
31
0.000000
39
0.000000
0
LINE
8
_2-2_柱
6
CONTINUOUS
62
7
10
-5520.000000
20
1880.000000
30
0.000000
11
-5400.000000
21
1760.000000
31
0.000000
39
0.000000
0
LINE
8
_2-2_柱
6
CONTINUOUS
62
7
10
-5520.000000
20
1760.000000
30
0.000000
11
-5400.000000
21
1880.000000
31
0.000000
39
0.000000
0
LINE
8
_2-2_柱
6
CONTINUOUS
62
2
10
-5520.000000
20
3700.000000
30
0.000000
11
-5520.000000
21
3580.000000
31
0.000000
39
0.000000
0
LINE
8
_2-2_柱
6
CONTINUOUS
62
2
10
-5520.000000
20
3580.000000
30
0.000000
11
-5400.000000
21
3580.000000
31
0.000000
39
0.000000
0
LINE
8
_2-2_柱
6
CONTINUOUS
62
2
10
-5400.000000
20
3580.000000
30
0.000000
11
-5400.000000
21
3700.000000
31
0.000000
39
0.000000
0
LINE
8
_2-2_柱
6
CONTINUOUS
62
2
10
-5400.000000
20
3700.000000
30
0.000000
11
-5520.000000
21
3700.000000
31
0.000000
39
0.000000
0
LINE
8
_2-2_柱
6
CONTINUOUS
62
7
10
-5520.000000
20
3700.000000
30
0.000000
11
-5400.000000
21
3580.000000
31
0.000000
39
0.000000
0
LINE
8
_2-2_柱
6
CONTINUOUS
62
7
10
-5520.000000
20
3580.000000
30
0.000000
11
-5400.000000
21
3700.000000
31
0.000000
39
0.000000
0
LINE
8
_2-2_柱
6
CONTINUOUS
62
2
10
-7340.000000
20
970.000000
30
0.000000
11
-7340.000000
21
850.000000
31
0.000000
39
0.000000
0
LINE
8
_2-2_柱
6
CONTINUOUS
62
2
10
-7340.000000
20
850.000000
30
0.000000
11
-7220.000000
21
850.000000
31
0.000000
39
0.000000
0
LINE
8
_2-2_柱
6
CONTINUOUS
62
2
10
-7220.000000
20
850.000000
30
0.000000
11
-7220.000000
21
970.000000
31
0.000000
39
0.000000
0
LINE
8
_2-2_柱
6
CONTINUOUS
62
2
10
-7220.000000
20
970.000000
30
0.000000
11
-7340.000000
21
970.000000
31
0.000000
39
0.000000
0
LINE
8
_2-2_柱
6
CONTINUOUS
62
7
10
-7340.000000
20
970.000000
30
0.000000
11
-7220.000000
21
850.000000
31
0.000000
39
0.000000
0
LINE
8
_2-2_柱
6
CONTINUOUS
62
7
10
-7340.000000
20
850.000000
30
0.000000
11
-7220.000000
21
970.000000
31
0.000000
39
0.000000
0
LINE
8
_2-2_柱
6
CONTINUOUS
62
2
10
-7340.000000
20
60.000000
30
0.000000
11
-7340.000000
21
-60.000000
31
0.000000
39
0.000000
0
LINE
8
_2-2_柱
6
CONTINUOUS
62
2
10
-7340.000000
20
-60.000000
30
0.000000
11
-7220.000000
21
-60.000000
31
0.000000
39
0.000000
0
LINE
8
_2-2_柱
6
CONTINUOUS
62
2
10
-7220.000000
20
-60.000000
30
0.000000
11
-7220.000000
21
60.000000
31
0.000000
39
0.000000
0
LINE
8
_2-2_柱
6
CONTINUOUS
62
2
10
-7220.000000
20
60.000000
30
0.000000
11
-7340.000000
21
60.000000
31
0.000000
39
0.000000
0
LINE
8
_2-2_柱
6
CONTINUOUS
62
2
10
-7233.933983
20
-60.000000
30
0.000000
11
-7220.000000
21
-46.066017
31
0.000000
39
0.000000
0
LINE
8
_2-2_柱
6
CONTINUOUS
62
2
10
-7255.147186
20
-60.000000
30
0.000000
11
-7220.000000
21
-24.852814
31
0.000000
39
0.000000
0
LINE
8
_2-2_柱
6
CONTINUOUS
62
2
10
-7276.360390
20
-60.000000
30
0.000000
11
-7220.000000
21
-3.639610
31
0.000000
39
0.000000
0
LINE
8
_2-2_柱
6
CONTINUOUS
62
2
10
-7297.573593
20
-60.000000
30
0.000000
11
-7220.000000
21
17.573593
31
0.000000
39
0.000000
0
LINE
8
_2-2_柱
6
CONTINUOUS
62
2
10
-7318.786797
20
-60.000000
30
0.000000
11
-7220.000000
21
38.786797
31
0.000000
39
0.000000
0
LINE
8
_2-2_柱
6
CONTINUOUS
62
2
10
-7340.000000
20
-60.000000
30
0.000000
11
-7220.000000
21
60.000000
31
0.000000
39
0.000000
0
LINE
8
_2-2_柱
6
CONTINUOUS
62
2
10
-7340.000000
20
-38.786797
30
0.000000
11
-7241.213203
21
60.000000
31
0.000000
39
0.000000
0
LINE
8
_2-2_柱
6
CONTINUOUS
62
2
10
-7340.000000
20
-17.573593
30
0.000000
11
-7262.426407
21
60.000000
31
0.000000
39
0.000000
0
LINE
8
_2-2_柱
6
CONTINUOUS
62
2
10
-7340.000000
20
3.639610
30
0.000000
11
-7283.639610
21
60.000000
31
0.000000
39
0.000000
0
LINE
8
_2-2_柱
6
CONTINUOUS
62
2
10
-7340.000000
20
24.852814
30
0.000000
11
-7304.852814
21
60.000000
31
0.000000
39
0.000000
0
LINE
8
_2-2_柱
6
CONTINUOUS
62
2
10
-7340.000000
20
46.066017
30
0.000000
11
-7326.066017
21
60.000000
31
0.000000
39
0.000000
0
LINE
8
_2-2_柱
6
CONTINUOUS
62
2
10
-6430.000000
20
60.000000
30
0.000000
11
-6430.000000
21
-60.000000
31
0.000000
39
0.000000
0
LINE
8
_2-2_柱
6
CONTINUOUS
62
2
10
-6430.000000
20
-60.000000
30
0.000000
11
-6310.000000
21
-60.000000
31
0.000000
39
0.000000
0
LINE
8
_2-2_柱
6
CONTINUOUS
62
2
10
-6310.000000
20
-60.000000
30
0.000000
11
-6310.000000
21
60.000000
31
0.000000
39
0.000000
0
LINE
8
_2-2_柱
6
CONTINUOUS
62
2
10
-6310.000000
20
60.000000
30
0.000000
11
-6430.000000
21
60.000000
31
0.000000
39
0.000000
0
LINE
8
_2-2_柱
6
CONTINUOUS
62
2
10
-6323.933983
20
-60.000000
30
0.000000
11
-6310.000000
21
-46.066017
31
0.000000
39
0.000000
0
LINE
8
_2-2_柱
6
CONTINUOUS
62
2
10
-6345.147186
20
-60.000000
30
0.000000
11
-6310.000000
21
-24.852814
31
0.000000
39
0.000000
0
LINE
8
_2-2_柱
6
CONTINUOUS
62
2
10
-6366.360390
20
-60.000000
30
0.000000
11
-6310.000000
21
-3.639610
31
0.000000
39
0.000000
0
LINE
8
_2-2_柱
6
CONTINUOUS
62
2
10
-6387.573593
20
-60.000000
30
0.000000
11
-6310.000000
21
17.573593
31
0.000000
39
0.000000
0
LINE
8
_2-2_柱
6
CONTINUOUS
62
2
10
-6408.786797
20
-60.000000
30
0.000000
11
-6310.000000
21
38.786797
31
0.000000
39
0.000000
0
LINE
8
_2-2_柱
6
CONTINUOUS
62
2
10
-6430.000000
20
-60.000000
30
0.000000
11
-6310.000000
21
60.000000
31
0.000000
39
0.000000
0
LINE
8
_2-2_柱
6
CONTINUOUS
62
2
10
-6430.000000
20
-38.786797
30
0.000000
11
-6331.213203
21
60.000000
31
0.000000
39
0.000000
0
LINE
8
_2-2_柱
6
CONTINUOUS
62
2
10
-6430.000000
20
-17.573593
30
0.000000
11
-6352.426407
21
60.000000
31
0.000000
39
0.000000
0
LINE
8
_2-2_柱
6
CONTINUOUS
62
2
10
-6430.000000
20
3.639610
30
0.000000
11
-6373.639610
21
60.000000
31
0.000000
39
0.000000
0
LINE
8
_2-2_柱
6
CONTINUOUS
62
2
10
-6430.000000
20
24.852814
30
0.000000
11
-6394.852814
21
60.000000
31
0.000000
39
0.000000
0
LINE
8
_2-2_柱
6
CONTINUOUS
62
2
10
-6430.000000
20
46.066017
30
0.000000
11
-6416.066017
21
60.000000
31
0.000000
39
0.000000
0
LINE
8
_2-2_柱
6
CONTINUOUS
62
2
10
-6430.000000
20
970.000000
30
0.000000
11
-6430.000000
21
850.000000
31
0.000000
39
0.000000
0
LINE
8
_2-2_柱
6
CONTINUOUS
62
2
10
-6430.000000
20
850.000000
30
0.000000
11
-6310.000000
21
850.000000
31
0.000000
39
0.000000
0
LINE
8
_2-2_柱
6
CONTINUOUS
62
2
10
-6310.000000
20
850.000000
30
0.000000
11
-6310.000000
21
970.000000
31
0.000000
39
0.000000
0
LINE
8
_2-2_柱
6
CONTINUOUS
62
2
10
-6310.000000
20
970.000000
30
0.000000
11
-6430.000000
21
970.000000
31
0.000000
39
0.000000
0
LINE
8
_2-2_柱
6
CONTINUOUS
62
7
10
-6430.000000
20
970.000000
30
0.000000
11
-6310.000000
21
850.000000
31
0.000000
39
0.000000
0
LINE
8
_2-2_柱
6
CONTINUOUS
62
7
10
-6430.000000
20
850.000000
30
0.000000
11
-6310.000000
21
970.000000
31
0.000000
39
0.000000
0
LINE
8
_2-2_柱
6
CONTINUOUS
62
2
10
-4610.000000
20
-3580.000000
30
0.000000
11
-4610.000000
21
-3700.000000
31
0.000000
39
0.000000
0
LINE
8
_2-2_柱
6
CONTINUOUS
62
2
10
-4610.000000
20
-3700.000000
30
0.000000
11
-4490.000000
21
-3700.000000
31
0.000000
39
0.000000
0
LINE
8
_2-2_柱
6
CONTINUOUS
62
2
10
-4490.000000
20
-3700.000000
30
0.000000
11
-4490.000000
21
-3580.000000
31
0.000000
39
0.000000
0
LINE
8
_2-2_柱
6
CONTINUOUS
62
2
10
-4490.000000
20
-3580.000000
30
0.000000
11
-4610.000000
21
-3580.000000
31
0.000000
39
0.000000
0
LINE
8
_2-2_柱
6
CONTINUOUS
62
2
10
-4503.933983
20
-3700.000000
30
0.000000
11
-4490.000000
21
-3686.066017
31
0.000000
39
0.000000
0
LINE
8
_2-2_柱
6
CONTINUOUS
62
2
10
-4525.147186
20
-3700.000000
30
0.000000
11
-4490.000000
21
-3664.852814
31
0.000000
39
0.000000
0
LINE
8
_2-2_柱
6
CONTINUOUS
62
2
10
-4546.360390
20
-3700.000000
30
0.000000
11
-4490.000000
21
-3643.639610
31
0.000000
39
0.000000
0
LINE
8
_2-2_柱
6
CONTINUOUS
62
2
10
-4567.573593
20
-3700.000000
30
0.000000
11
-4490.000000
21
-3622.426407
31
0.000000
39
0.000000
0
LINE
8
_2-2_柱
6
CONTINUOUS
62
2
10
-4588.786797
20
-3700.000000
30
0.000000
11
-4490.000000
21
-3601.213203
31
0.000000
39
0.000000
0
LINE
8
_2-2_柱
6
CONTINUOUS
62
2
10
-4610.000000
20
-3700.000000
30
0.000000
11
-4490.000000
21
-3580.000000
31
0.000000
39
0.000000
0
LINE
8
_2-2_柱
6
CONTINUOUS
62
2
10
-4610.000000
20
-3678.786797
30
0.000000
11
-4511.213203
21
-3580.000000
31
0.000000
39
0.000000
0
LINE
8
_2-2_柱
6
CONTINUOUS
62
2
10
-4610.000000
20
-3657.573593
30
0.000000
11
-4532.426407
21
-3580.000000
31
0.000000
39
0.000000
0
LINE
8
_2-2_柱
6
CONTINUOUS
62
2
10
-4610.000000
20
-3636.360390
30
0.000000
11
-4553.639610
21
-3580.000000
31
0.000000
39
0.000000
0
LINE
8
_2-2_柱
6
CONTINUOUS
62
2
10
-4610.000000
20
-3615.147186
30
0.000000
11
-4574.852814
21
-3580.000000
31
0.000000
39
0.000000
0
LINE
8
_2-2_柱
6
CONTINUOUS
62
2
10
-4610.000000
20
-3593.933983
30
0.000000
11
-4596.066017
21
-3580.000000
31
0.000000
39
0.000000
0
LINE
8
_2-2_柱
6
CONTINUOUS
62
2
10
-4610.000000
20
60.000000
30
0.000000
11
-4610.000000
21
-60.000000
31
0.000000
39
0.000000
0
LINE
8
_2-2_柱
6
CONTINUOUS
62
2
10
-4610.000000
20
-60.000000
30
0.000000
11
-4490.000000
21
-60.000000
31
0.000000
39
0.000000
0
LINE
8
_2-2_柱
6
CONTINUOUS
62
2
10
-4490.000000
20
-60.000000
30
0.000000
11
-4490.000000
21
60.000000
31
0.000000
39
0.000000
0
LINE
8
_2-2_柱
6
CONTINUOUS
62
2
10
-4490.000000
20
60.000000
30
0.000000
11
-4610.000000
21
60.000000
31
0.000000
39
0.000000
0
LINE
8
_2-2_柱
6
CONTINUOUS
62
2
10
-4503.933983
20
-60.000000
30
0.000000
11
-4490.000000
21
-46.066017
31
0.000000
39
0.000000
0
LINE
8
_2-2_柱
6
CONTINUOUS
62
2
10
-4525.147186
20
-60.000000
30
0.000000
11
-4490.000000
21
-24.852814
31
0.000000
39
0.000000
0
LINE
8
_2-2_柱
6
CONTINUOUS
62
2
10
-4546.360390
20
-60.000000
30
0.000000
11
-4490.000000
21
-3.639610
31
0.000000
39
0.000000
0
LINE
8
_2-2_柱
6
CONTINUOUS
62
2
10
-4567.573593
20
-60.000000
30
0.000000
11
-4490.000000
21
17.573593
31
0.000000
39
0.000000
0
LINE
8
_2-2_柱
6
CONTINUOUS
62
2
10
-4588.786797
20
-60.000000
30
0.000000
11
-4490.000000
21
38.786797
31
0.000000
39
0.000000
0
LINE
8
_2-2_柱
6
CONTINUOUS
62
2
10
-4610.000000
20
-60.000000
30
0.000000
11
-4490.000000
21
60.000000
31
0.000000
39
0.000000
0
LINE
8
_2-2_柱
6
CONTINUOUS
62
2
10
-4610.000000
20
-38.786797
30
0.000000
11
-4511.213203
21
60.000000
31
0.000000
39
0.000000
0
LINE
8
_2-2_柱
6
CONTINUOUS
62
2
10
-4610.000000
20
-17.573593
30
0.000000
11
-4532.426407
21
60.000000
31
0.000000
39
0.000000
0
LINE
8
_2-2_柱
6
CONTINUOUS
62
2
10
-4610.000000
20
3.639610
30
0.000000
11
-4553.639610
21
60.000000
31
0.000000
39
0.000000
0
LINE
8
_2-2_柱
6
CONTINUOUS
62
2
10
-4610.000000
20
24.852814
30
0.000000
11
-4574.852814
21
60.000000
31
0.000000
39
0.000000
0
LINE
8
_2-2_柱
6
CONTINUOUS
62
2
10
-4610.000000
20
46.066017
30
0.000000
11
-4596.066017
21
60.000000
31
0.000000
39
0.000000
0
LINE
8
_2-2_柱
6
CONTINUOUS
62
2
10
-970.000000
20
60.000000
30
0.000000
11
-970.000000
21
-60.000000
31
0.000000
39
0.000000
0
LINE
8
_2-2_柱
6
CONTINUOUS
62
2
10
-970.000000
20
-60.000000
30
0.000000
11
-850.000000
21
-60.000000
31
0.000000
39
0.000000
0
LINE
8
_2-2_柱
6
CONTINUOUS
62
2
10
-850.000000
20
-60.000000
30
0.000000
11
-850.000000
21
60.000000
31
0.000000
39
0.000000
0
LINE
8
_2-2_柱
6
CONTINUOUS
62
2
10
-850.000000
20
60.000000
30
0.000000
11
-970.000000
21
60.000000
31
0.000000
39
0.000000
0
LINE
8
_2-2_柱
6
CONTINUOUS
62
7
10
-970.000000
20
60.000000
30
0.000000
11
-850.000000
21
-60.000000
31
0.000000
39
0.000000
0
LINE
8
_2-2_柱
6
CONTINUOUS
62
7
10
-970.000000
20
-60.000000
30
0.000000
11
-850.000000
21
60.000000
31
0.000000
39
0.000000
0
LINE
8
_2-2_柱
6
CONTINUOUS
62
2
10
-2790.000000
20
60.000000
30
0.000000
11
-2790.000000
21
-60.000000
31
0.000000
39
0.000000
0
LINE
8
_2-2_柱
6
CONTINUOUS
62
2
10
-2790.000000
20
-60.000000
30
0.000000
11
-2670.000000
21
-60.000000
31
0.000000
39
0.000000
0
LINE
8
_2-2_柱
6
CONTINUOUS
62
2
10
-2670.000000
20
-60.000000
30
0.000000
11
-2670.000000
21
60.000000
31
0.000000
39
0.000000
0
LINE
8
_2-2_柱
6
CONTINUOUS
62
2
10
-2670.000000
20
60.000000
30
0.000000
11
-2790.000000
21
60.000000
31
0.000000
39
0.000000
0
LINE
8
_2-2_柱
6
CONTINUOUS
62
7
10
-2790.000000
20
60.000000
30
0.000000
11
-2670.000000
21
-60.000000
31
0.000000
39
0.000000
0
LINE
8
_2-2_柱
6
CONTINUOUS
62
7
10
-2790.000000
20
-60.000000
30
0.000000
11
-2670.000000
21
60.000000
31
0.000000
39
0.000000
0
LINE
8
_2-2_柱
6
CONTINUOUS
62
2
10
-2790.000000
20
3700.000000
30
0.000000
11
-2790.000000
21
3580.000000
31
0.000000
39
0.000000
0
LINE
8
_2-2_柱
6
CONTINUOUS
62
2
10
-2790.000000
20
3580.000000
30
0.000000
11
-2670.000000
21
3580.000000
31
0.000000
39
0.000000
0
LINE
8
_2-2_柱
6
CONTINUOUS
62
2
10
-2670.000000
20
3580.000000
30
0.000000
11
-2670.000000
21
3700.000000
31
0.000000
39
0.000000
0
LINE
8
_2-2_柱
6
CONTINUOUS
62
2
10
-2670.000000
20
3700.000000
30
0.000000
11
-2790.000000
21
3700.000000
31
0.000000
39
0.000000
0
LINE
8
_2-2_柱
6
CONTINUOUS
62
7
10
-2790.000000
20
3700.000000
30
0.000000
11
-2670.000000
21
3580.000000
31
0.000000
39
0.000000
0
LINE
8
_2-2_柱
6
CONTINUOUS
62
7
10
-2790.000000
20
3580.000000
30
0.000000
11
-2670.000000
21
3700.000000
31
0.000000
39
0.000000
0
LINE
8
_2-2_柱
6
CONTINUOUS
62
2
10
-5520.000000
20
60.000000
30
0.000000
11
-5520.000000
21
-60.000000
31
0.000000
39
0.000000
0
LINE
8
_2-2_柱
6
CONTINUOUS
62
2
10
-5520.000000
20
-60.000000
30
0.000000
11
-5400.000000
21
-60.000000
31
0.000000
39
0.000000
0
LINE
8
_2-2_柱
6
CONTINUOUS
62
2
10
-5400.000000
20
-60.000000
30
0.000000
11
-5400.000000
21
60.000000
31
0.000000
39
0.000000
0
LINE
8
_2-2_柱
6
CONTINUOUS
62
2
10
-5400.000000
20
60.000000
30
0.000000
11
-5520.000000
21
60.000000
31
0.000000
39
0.000000
0
LINE
8
_2-2_柱
6
CONTINUOUS
62
2
10
-5413.933983
20
-60.000000
30
0.000000
11
-5400.000000
21
-46.066017
31
0.000000
39
0.000000
0
LINE
8
_2-2_柱
6
CONTINUOUS
62
2
10
-5435.147186
20
-60.000000
30
0.000000
11
-5400.000000
21
-24.852814
31
0.000000
39
0.000000
0
LINE
8
_2-2_柱
6
CONTINUOUS
62
2
10
-5456.360390
20
-60.000000
30
0.000000
11
-5400.000000
21
-3.639610
31
0.000000
39
0.000000
0
LINE
8
_2-2_柱
6
CONTINUOUS
62
2
10
-5477.573593
20
-60.000000
30
0.000000
11
-5400.000000
21
17.573593
31
0.000000
39
0.000000
0
LINE
8
_2-2_柱
6
CONTINUOUS
62
2
10
-5498.786797
20
-60.000000
30
0.000000
11
-5400.000000
21
38.786797
31
0.000000
39
0.000000
0
LINE
8
_2-2_柱
6
CONTINUOUS
62
2
10
-5520.000000
20
-60.000000
30
0.000000
11
-5400.000000
21
60.000000
31
0.000000
39
0.000000
0
LINE
8
_2-2_柱
6
CONTINUOUS
62
2
10
-5520.000000
20
-38.786797
30
0.000000
11
-5421.213203
21
60.000000
31
0.000000
39
0.000000
0
LINE
8
_2-2_柱
6
CONTINUOUS
62
2
10
-5520.000000
20
-17.573593
30
0.000000
11
-5442.426407
21
60.000000
31
0.000000
39
0.000000
0
LINE
8
_2-2_柱
6
CONTINUOUS
62
2
10
-5520.000000
20
3.639610
30
0.000000
11
-5463.639610
21
60.000000
31
0.000000
39
0.000000
0
LINE
8
_2-2_柱
6
CONTINUOUS
62
2
10
-5520.000000
20
24.852814
30
0.000000
11
-5484.852814
21
60.000000
31
0.000000
39
0.000000
0
LINE
8
_2-2_柱
6
CONTINUOUS
62
2
10
-5520.000000
20
46.066017
30
0.000000
11
-5506.066017
21
60.000000
31
0.000000
39
0.000000
0
LINE
8
_2-2_柱
6
CONTINUOUS
62
2
10
-2790.000000
20
2790.000000
30
0.000000
11
-2790.000000
21
2670.000000
31
0.000000
39
0.000000
0
LINE
8
_2-2_柱
6
CONTINUOUS
62
2
10
-2790.000000
20
2670.000000
30
0.000000
11
-2670.000000
21
2670.000000
31
0.000000
39
0.000000
0
LINE
8
_2-2_柱
6
CONTINUOUS
62
2
10
-2670.000000
20
2670.000000
30
0.000000
11
-2670.000000
21
2790.000000
31
0.000000
39
0.000000
0
LINE
8
_2-2_柱
6
CONTINUOUS
62
2
10
-2670.000000
20
2790.000000
30
0.000000
11
-2790.000000
21
2790.000000
31
0.000000
39
0.000000
0
LINE
8
_2-2_柱
6
CONTINUOUS
62
7
10
-2790.000000
20
2790.000000
30
0.000000
11
-2670.000000
21
2670.000000
31
0.000000
39
0.000000
0
LINE
8
_2-2_柱
6
CONTINUOUS
62
7
10
-2790.000000
20
2670.000000
30
0.000000
11
-2670.000000
21
2790.000000
31
0.000000
39
0.000000
0
LINE
8
_2-2_柱
6
CONTINUOUS
62
2
10
-970.000000
20
2790.000000
30
0.000000
11
-970.000000
21
2670.000000
31
0.000000
39
0.000000
0
LINE
8
_2-2_柱
6
CONTINUOUS
62
2
10
-970.000000
20
2670.000000
30
0.000000
11
-850.000000
21
2670.000000
31
0.000000
39
0.000000
0
LINE
8
_2-2_柱
6
CONTINUOUS
62
2
10
-850.000000
20
2670.000000
30
0.000000
11
-850.000000
21
2790.000000
31
0.000000
39
0.000000
0
LINE
8
_2-2_柱
6
CONTINUOUS
62
2
10
-850.000000
20
2790.000000
30
0.000000
11
-970.000000
21
2790.000000
31
0.000000
39
0.000000
0
LINE
8
_2-2_柱
6
CONTINUOUS
62
7
10
-970.000000
20
2790.000000
30
0.000000
11
-850.000000
21
2670.000000
31
0.000000
39
0.000000
0
LINE
8
_2-2_柱
6
CONTINUOUS
62
7
10
-970.000000
20
2670.000000
30
0.000000
11
-850.000000
21
2790.000000
31
0.000000
39
0.000000
0
LINE
8
_2-2_柱
6
CONTINUOUS
62
2
10
-970.000000
20
3700.000000
30
0.000000
11
-970.000000
21
3580.000000
31
0.000000
39
0.000000
0
LINE
8
_2-2_柱
6
CONTINUOUS
62
2
10
-970.000000
20
3580.000000
30
0.000000
11
-850.000000
21
3580.000000
31
0.000000
39
0.000000
0
LINE
8
_2-2_柱
6
CONTINUOUS
62
2
10
-850.000000
20
3580.000000
30
0.000000
11
-850.000000
21
3700.000000
31
0.000000
39
0.000000
0
LINE
8
_2-2_柱
6
CONTINUOUS
62
2
10
-850.000000
20
3700.000000
30
0.000000
11
-970.000000
21
3700.000000
31
0.000000
39
0.000000
0
LINE
8
_2-2_柱
6
CONTINUOUS
62
7
10
-970.000000
20
3700.000000
30
0.000000
11
-850.000000
21
3580.000000
31
0.000000
39
0.000000
0
LINE
8
_2-2_柱
6
CONTINUOUS
62
7
10
-970.000000
20
3580.000000
30
0.000000
11
-850.000000
21
3700.000000
31
0.000000
39
0.000000
0
LINE
8
_2-2_柱
6
CONTINUOUS
62
2
10
-1880.000000
20
970.000000
30
0.000000
11
-1880.000000
21
850.000000
31
0.000000
39
0.000000
0
LINE
8
_2-2_柱
6
CONTINUOUS
62
2
10
-1880.000000
20
850.000000
30
0.000000
11
-1760.000000
21
850.000000
31
0.000000
39
0.000000
0
LINE
8
_2-2_柱
6
CONTINUOUS
62
2
10
-1760.000000
20
850.000000
30
0.000000
11
-1760.000000
21
970.000000
31
0.000000
39
0.000000
0
LINE
8
_2-2_柱
6
CONTINUOUS
62
2
10
-1760.000000
20
970.000000
30
0.000000
11
-1880.000000
21
970.000000
31
0.000000
39
0.000000
0
LINE
8
_2-2_柱
6
CONTINUOUS
62
7
10
-1880.000000
20
970.000000
30
0.000000
11
-1760.000000
21
850.000000
31
0.000000
39
0.000000
0
LINE
8
_2-2_柱
6
CONTINUOUS
62
7
10
-1880.000000
20
850.000000
30
0.000000
11
-1760.000000
21
970.000000
31
0.000000
39
0.000000
0
LINE
8
_2-2_柱
6
CONTINUOUS
62
2
10
-1880.000000
20
2790.000000
30
0.000000
11
-1880.000000
21
2670.000000
31
0.000000
39
0.000000
0
LINE
8
_2-2_柱
6
CONTINUOUS
62
2
10
-1880.000000
20
2670.000000
30
0.000000
11
-1760.000000
21
2670.000000
31
0.000000
39
0.000000
0
LINE
8
_2-2_柱
6
CONTINUOUS
62
2
10
-1760.000000
20
2670.000000
30
0.000000
11
-1760.000000
21
2790.000000
31
0.000000
39
0.000000
0
LINE
8
_2-2_柱
6
CONTINUOUS
62
2
10
-1760.000000
20
2790.000000
30
0.000000
11
-1880.000000
21
2790.000000
31
0.000000
39
0.000000
0
LINE
8
_2-2_柱
6
CONTINUOUS
62
7
10
-1880.000000
20
2790.000000
30
0.000000
11
-1760.000000
21
2670.000000
31
0.000000
39
0.000000
0
LINE
8
_2-2_柱
6
CONTINUOUS
62
7
10
-1880.000000
20
2670.000000
30
0.000000
11
-1760.000000
21
2790.000000
31
0.000000
39
0.000000
0
LINE
8
_2-2_柱
6
CONTINUOUS
62
2
10
-2790.000000
20
970.000000
30
0.000000
11
-2790.000000
21
850.000000
31
0.000000
39
0.000000
0
LINE
8
_2-2_柱
6
CONTINUOUS
62
2
10
-2790.000000
20
850.000000
30
0.000000
11
-2670.000000
21
850.000000
31
0.000000
39
0.000000
0
LINE
8
_2-2_柱
6
CONTINUOUS
62
2
10
-2670.000000
20
850.000000
30
0.000000
11
-2670.000000
21
970.000000
31
0.000000
39
0.000000
0
LINE
8
_2-2_柱
6
CONTINUOUS
62
2
10
-2670.000000
20
970.000000
30
0.000000
11
-2790.000000
21
970.000000
31
0.000000
39
0.000000
0
LINE
8
_2-2_柱
6
CONTINUOUS
62
7
10
-2790.000000
20
970.000000
30
0.000000
11
-2670.000000
21
850.000000
31
0.000000
39
0.000000
0
LINE
8
_2-2_柱
6
CONTINUOUS
62
7
10
-2790.000000
20
850.000000
30
0.000000
11
-2670.000000
21
970.000000
31
0.000000
39
0.000000
0
LINE
8
_2-2_柱
6
CONTINUOUS
62
2
10
-60.000000
20
2790.000000
30
0.000000
11
-60.000000
21
2670.000000
31
0.000000
39
0.000000
0
LINE
8
_2-2_柱
6
CONTINUOUS
62
2
10
-60.000000
20
2670.000000
30
0.000000
11
60.000000
21
2670.000000
31
0.000000
39
0.000000
0
LINE
8
_2-2_柱
6
CONTINUOUS
62
2
10
60.000000
20
2670.000000
30
0.000000
11
60.000000
21
2790.000000
31
0.000000
39
0.000000
0
LINE
8
_2-2_柱
6
CONTINUOUS
62
2
10
60.000000
20
2790.000000
30
0.000000
11
-60.000000
21
2790.000000
31
0.000000
39
0.000000
0
LINE
8
_2-2_柱
6
CONTINUOUS
62
7
10
-60.000000
20
2790.000000
30
0.000000
11
60.000000
21
2670.000000
31
0.000000
39
0.000000
0
LINE
8
_2-2_柱
6
CONTINUOUS
62
7
10
-60.000000
20
2670.000000
30
0.000000
11
60.000000
21
2790.000000
31
0.000000
39
0.000000
0
LINE
8
_2-2_柱
6
CONTINUOUS
62
2
10
-60.000000
20
3700.000000
30
0.000000
11
-60.000000
21
3580.000000
31
0.000000
39
0.000000
0
LINE
8
_2-2_柱
6
CONTINUOUS
62
2
10
-60.000000
20
3580.000000
30
0.000000
11
60.000000
21
3580.000000
31
0.000000
39
0.000000
0
LINE
8
_2-2_柱
6
CONTINUOUS
62
2
10
60.000000
20
3580.000000
30
0.000000
11
60.000000
21
3700.000000
31
0.000000
39
0.000000
0
LINE
8
_2-2_柱
6
CONTINUOUS
62
2
10
60.000000
20
3700.000000
30
0.000000
11
-60.000000
21
3700.000000
31
0.000000
39
0.000000
0
LINE
8
_2-2_柱
6
CONTINUOUS
62
7
10
-60.000000
20
3700.000000
30
0.000000
11
60.000000
21
3580.000000
31
0.000000
39
0.000000
0
LINE
8
_2-2_柱
6
CONTINUOUS
62
7
10
-60.000000
20
3580.000000
30
0.000000
11
60.000000
21
3700.000000
31
0.000000
39
0.000000
0
LINE
8
_2-2_柱
6
CONTINUOUS
62
2
10
2670.000000
20
60.000000
30
0.000000
11
2670.000000
21
-60.000000
31
0.000000
39
0.000000
0
LINE
8
_2-2_柱
6
CONTINUOUS
62
2
10
2670.000000
20
-60.000000
30
0.000000
11
2790.000000
21
-60.000000
31
0.000000
39
0.000000
0
LINE
8
_2-2_柱
6
CONTINUOUS
62
2
10
2790.000000
20
-60.000000
30
0.000000
11
2790.000000
21
60.000000
31
0.000000
39
0.000000
0
LINE
8
_2-2_柱
6
CONTINUOUS
62
2
10
2790.000000
20
60.000000
30
0.000000
11
2670.000000
21
60.000000
31
0.000000
39
0.000000
0
LINE
8
_2-2_柱
6
CONTINUOUS
62
7
10
2670.000000
20
60.000000
30
0.000000
11
2790.000000
21
-60.000000
31
0.000000
39
0.000000
0
LINE
8
_2-2_柱
6
CONTINUOUS
62
7
10
2670.000000
20
-60.000000
30
0.000000
11
2790.000000
21
60.000000
31
0.000000
39
0.000000
0
LINE
8
_2-2_柱
6
CONTINUOUS
62
2
10
-6430.000000
20
424.000000
30
0.000000
11
-6430.000000
21
304.000000
31
0.000000
39
0.000000
0
LINE
8
_2-2_柱
6
CONTINUOUS
62
2
10
-6430.000000
20
304.000000
30
0.000000
11
-6310.000000
21
304.000000
31
0.000000
39
0.000000
0
LINE
8
_2-2_柱
6
CONTINUOUS
62
2
10
-6310.000000
20
304.000000
30
0.000000
11
-6310.000000
21
424.000000
31
0.000000
39
0.000000
0
LINE
8
_2-2_柱
6
CONTINUOUS
62
2
10
-6310.000000
20
424.000000
30
0.000000
11
-6430.000000
21
424.000000
31
0.000000
39
0.000000
0
LINE
8
_2-2_柱
6
CONTINUOUS
62
7
10
-6430.000000
20
424.000000
30
0.000000
11
-6310.000000
21
304.000000
31
0.000000
39
0.000000
0
LINE
8
_2-2_柱
6
CONTINUOUS
62
7
10
-6430.000000
20
304.000000
30
0.000000
11
-6310.000000
21
424.000000
31
0.000000
39
0.000000
0
LINE
8
_2-2_柱
6
CONTINUOUS
62
2
10
850.000000
20
-3580.000000
30
0.000000
11
850.000000
21
-3700.000000
31
0.000000
39
0.000000
0
LINE
8
_2-2_柱
6
CONTINUOUS
62
2
10
850.000000
20
-3700.000000
30
0.000000
11
970.000000
21
-3700.000000
31
0.000000
39
0.000000
0
LINE
8
_2-2_柱
6
CONTINUOUS
62
2
10
970.000000
20
-3700.000000
30
0.000000
11
970.000000
21
-3580.000000
31
0.000000
39
0.000000
0
LINE
8
_2-2_柱
6
CONTINUOUS
62
2
10
970.000000
20
-3580.000000
30
0.000000
11
850.000000
21
-3580.000000
31
0.000000
39
0.000000
0
LINE
8
_2-2_柱
6
CONTINUOUS
62
7
10
850.000000
20
-3580.000000
30
0.000000
11
970.000000
21
-3700.000000
31
0.000000
39
0.000000
0
LINE
8
_2-2_柱
6
CONTINUOUS
62
7
10
850.000000
20
-3700.000000
30
0.000000
11
970.000000
21
-3580.000000
31
0.000000
39
0.000000
0
LINE
8
_2-2_柱
6
CONTINUOUS
62
2
10
2670.000000
20
-3580.000000
30
0.000000
11
2670.000000
21
-3700.000000
31
0.000000
39
0.000000
0
LINE
8
_2-2_柱
6
CONTINUOUS
62
2
10
2670.000000
20
-3700.000000
30
0.000000
11
2790.000000
21
-3700.000000
31
0.000000
39
0.000000
0
LINE
8
_2-2_柱
6
CONTINUOUS
62
2
10
2790.000000
20
-3700.000000
30
0.000000
11
2790.000000
21
-3580.000000
31
0.000000
39
0.000000
0
LINE
8
_2-2_柱
6
CONTINUOUS
62
2
10
2790.000000
20
-3580.000000
30
0.000000
11
2670.000000
21
-3580.000000
31
0.000000
39
0.000000
0
LINE
8
_2-2_柱
6
CONTINUOUS
62
7
10
2670.000000
20
-3580.000000
30
0.000000
11
2790.000000
21
-3700.000000
31
0.000000
39
0.000000
0
LINE
8
_2-2_柱
6
CONTINUOUS
62
7
10
2670.000000
20
-3700.000000
30
0.000000
11
2790.000000
21
-3580.000000
31
0.000000
39
0.000000
0
LINE
8
_2-2_柱
6
CONTINUOUS
62
2
10
-2790.000000
20
-3580.000000
30
0.000000
11
-2790.000000
21
-3700.000000
31
0.000000
39
0.000000
0
LINE
8
_2-2_柱
6
CONTINUOUS
62
2
10
-2790.000000
20
-3700.000000
30
0.000000
11
-2670.000000
21
-3700.000000
31
0.000000
39
0.000000
0
LINE
8
_2-2_柱
6
CONTINUOUS
62
2
10
-2670.000000
20
-3700.000000
30
0.000000
11
-2670.000000
21
-3580.000000
31
0.000000
39
0.000000
0
LINE
8
_2-2_柱
6
CONTINUOUS
62
2
10
-2670.000000
20
-3580.000000
30
0.000000
11
-2790.000000
21
-3580.000000
31
0.000000
39
0.000000
0
LINE
8
_2-2_柱
6
CONTINUOUS
62
7
10
-2790.000000
20
-3580.000000
30
0.000000
11
-2670.000000
21
-3700.000000
31
0.000000
39
0.000000
0
LINE
8
_2-2_柱
6
CONTINUOUS
62
7
10
-2790.000000
20
-3700.000000
30
0.000000
11
-2670.000000
21
-3580.000000
31
0.000000
39
0.000000
0
LINE
8
_2-2_柱
6
CONTINUOUS
62
2
10
-970.000000
20
1880.000000
30
0.000000
11
-970.000000
21
1760.000000
31
0.000000
39
0.000000
0
LINE
8
_2-2_柱
6
CONTINUOUS
62
2
10
-970.000000
20
1760.000000
30
0.000000
11
-850.000000
21
1760.000000
31
0.000000
39
0.000000
0
LINE
8
_2-2_柱
6
CONTINUOUS
62
2
10
-850.000000
20
1760.000000
30
0.000000
11
-850.000000
21
1880.000000
31
0.000000
39
0.000000
0
LINE
8
_2-2_柱
6
CONTINUOUS
62
2
10
-850.000000
20
1880.000000
30
0.000000
11
-970.000000
21
1880.000000
31
0.000000
39
0.000000
0
LINE
8
_2-2_柱
6
CONTINUOUS
62
7
10
-970.000000
20
1880.000000
30
0.000000
11
-850.000000
21
1760.000000
31
0.000000
39
0.000000
0
LINE
8
_2-2_柱
6
CONTINUOUS
62
7
10
-970.000000
20
1760.000000
30
0.000000
11
-850.000000
21
1880.000000
31
0.000000
39
0.000000
0
LINE
8
_2-2_柱
6
CONTINUOUS
62
2
10
2670.000000
20
970.000000
30
0.000000
11
2670.000000
21
850.000000
31
0.000000
39
0.000000
0
LINE
8
_2-2_柱
6
CONTINUOUS
62
2
10
2670.000000
20
850.000000
30
0.000000
11
2790.000000
21
850.000000
31
0.000000
39
0.000000
0
LINE
8
_2-2_柱
6
CONTINUOUS
62
2
10
2790.000000
20
850.000000
30
0.000000
11
2790.000000
21
970.000000
31
0.000000
39
0.000000
0
LINE
8
_2-2_柱
6
CONTINUOUS
62
2
10
2790.000000
20
970.000000
30
0.000000
11
2670.000000
21
970.000000
31
0.000000
39
0.000000
0
LINE
8
_2-2_柱
6
CONTINUOUS
62
7
10
2670.000000
20
970.000000
30
0.000000
11
2790.000000
21
850.000000
31
0.000000
39
0.000000
0
LINE
8
_2-2_柱
6
CONTINUOUS
62
7
10
2670.000000
20
850.000000
30
0.000000
11
2790.000000
21
970.000000
31
0.000000
39
0.000000
0
LINE
8
_2-2_柱
6
CONTINUOUS
62
2
10
850.000000
20
60.000000
30
0.000000
11
850.000000
21
-60.000000
31
0.000000
39
0.000000
0
LINE
8
_2-2_柱
6
CONTINUOUS
62
2
10
850.000000
20
-60.000000
30
0.000000
11
970.000000
21
-60.000000
31
0.000000
39
0.000000
0
LINE
8
_2-2_柱
6
CONTINUOUS
62
2
10
970.000000
20
-60.000000
30
0.000000
11
970.000000
21
60.000000
31
0.000000
39
0.000000
0
LINE
8
_2-2_柱
6
CONTINUOUS
62
2
10
970.000000
20
60.000000
30
0.000000
11
850.000000
21
60.000000
31
0.000000
39
0.000000
0
LINE
8
_2-2_柱
6
CONTINUOUS
62
7
10
850.000000
20
60.000000
30
0.000000
11
970.000000
21
-60.000000
31
0.000000
39
0.000000
0
LINE
8
_2-2_柱
6
CONTINUOUS
62
7
10
850.000000
20
-60.000000
30
0.000000
11
970.000000
21
60.000000
31
0.000000
39
0.000000
0
LINE
8
_2-2_柱
6
CONTINUOUS
62
2
10
-7340.000000
20
-2670.000000
30
0.000000
11
-7340.000000
21
-2790.000000
31
0.000000
39
0.000000
0
LINE
8
_2-2_柱
6
CONTINUOUS
62
2
10
-7340.000000
20
-2790.000000
30
0.000000
11
-7220.000000
21
-2790.000000
31
0.000000
39
0.000000
0
LINE
8
_2-2_柱
6
CONTINUOUS
62
2
10
-7220.000000
20
-2790.000000
30
0.000000
11
-7220.000000
21
-2670.000000
31
0.000000
39
0.000000
0
LINE
8
_2-2_柱
6
CONTINUOUS
62
2
10
-7220.000000
20
-2670.000000
30
0.000000
11
-7340.000000
21
-2670.000000
31
0.000000
39
0.000000
0
LINE
8
_2-2_柱
6
CONTINUOUS
62
2
10
-7233.933983
20
-2790.000000
30
0.000000
11
-7220.000000
21
-2776.066017
31
0.000000
39
0.000000
0
LINE
8
_2-2_柱
6
CONTINUOUS
62
2
10
-7255.147186
20
-2790.000000
30
0.000000
11
-7220.000000
21
-2754.852814
31
0.000000
39
0.000000
0
LINE
8
_2-2_柱
6
CONTINUOUS
62
2
10
-7276.360390
20
-2790.000000
30
0.000000
11
-7220.000000
21
-2733.639610
31
0.000000
39
0.000000
0
LINE
8
_2-2_柱
6
CONTINUOUS
62
2
10
-7297.573593
20
-2790.000000
30
0.000000
11
-7220.000000
21
-2712.426407
31
0.000000
39
0.000000
0
LINE
8
_2-2_柱
6
CONTINUOUS
62
2
10
-7318.786797
20
-2790.000000
30
0.000000
11
-7220.000000
21
-2691.213203
31
0.000000
39
0.000000
0
LINE
8
_2-2_柱
6
CONTINUOUS
62
2
10
-7340.000000
20
-2790.000000
30
0.000000
11
-7220.000000
21
-2670.000000
31
0.000000
39
0.000000
0
LINE
8
_2-2_柱
6
CONTINUOUS
62
2
10
-7340.000000
20
-2768.786797
30
0.000000
11
-7241.213203
21
-2670.000000
31
0.000000
39
0.000000
0
LINE
8
_2-2_柱
6
CONTINUOUS
62
2
10
-7340.000000
20
-2747.573593
30
0.000000
11
-7262.426407
21
-2670.000000
31
0.000000
39
0.000000
0
LINE
8
_2-2_柱
6
CONTINUOUS
62
2
10
-7340.000000
20
-2726.360390
30
0.000000
11
-7283.639610
21
-2670.000000
31
0.000000
39
0.000000
0
LINE
8
_2-2_柱
6
CONTINUOUS
62
2
10
-7340.000000
20
-2705.147186
30
0.000000
11
-7304.852814
21
-2670.000000
31
0.000000
39
0.000000
0
LINE
8
_2-2_柱
6
CONTINUOUS
62
2
10
-7340.000000
20
-2683.933983
30
0.000000
11
-7326.066017
21
-2670.000000
31
0.000000
39
0.000000
0
LINE
8
_2-2_柱
6
CONTINUOUS
62
2
10
-970.000000
20
-1760.000000
30
0.000000
11
-970.000000
21
-1880.000000
31
0.000000
39
0.000000
0
LINE
8
_2-2_柱
6
CONTINUOUS
62
2
10
-970.000000
20
-1880.000000
30
0.000000
11
-850.000000
21
-1880.000000
31
0.000000
39
0.000000
0
LINE
8
_2-2_柱
6
CONTINUOUS
62
2
10
-850.000000
20
-1880.000000
30
0.000000
11
-850.000000
21
-1760.000000
31
0.000000
39
0.000000
0
LINE
8
_2-2_柱
6
CONTINUOUS
62
2
10
-850.000000
20
-1760.000000
30
0.000000
11
-970.000000
21
-1760.000000
31
0.000000
39
0.000000
0
LINE
8
_2-2_柱
6
CONTINUOUS
62
7
10
-970.000000
20
-1760.000000
30
0.000000
11
-850.000000
21
-1880.000000
31
0.000000
39
0.000000
0
LINE
8
_2-2_柱
6
CONTINUOUS
62
7
10
-970.000000
20
-1880.000000
30
0.000000
11
-850.000000
21
-1760.000000
31
0.000000
39
0.000000
0
LINE
8
_2-2_柱
6
CONTINUOUS
62
2
10
850.000000
20
-850.000000
30
0.000000
11
850.000000
21
-970.000000
31
0.000000
39
0.000000
0
LINE
8
_2-2_柱
6
CONTINUOUS
62
2
10
850.000000
20
-970.000000
30
0.000000
11
970.000000
21
-970.000000
31
0.000000
39
0.000000
0
LINE
8
_2-2_柱
6
CONTINUOUS
62
2
10
970.000000
20
-970.000000
30
0.000000
11
970.000000
21
-850.000000
31
0.000000
39
0.000000
0
LINE
8
_2-2_柱
6
CONTINUOUS
62
2
10
970.000000
20
-850.000000
30
0.000000
11
850.000000
21
-850.000000
31
0.000000
39
0.000000
0
LINE
8
_2-2_柱
6
CONTINUOUS
62
7
10
850.000000
20
-850.000000
30
0.000000
11
970.000000
21
-970.000000
31
0.000000
39
0.000000
0
LINE
8
_2-2_柱
6
CONTINUOUS
62
7
10
850.000000
20
-970.000000
30
0.000000
11
970.000000
21
-850.000000
31
0.000000
39
0.000000
0
LINE
8
_2-2_柱
6
CONTINUOUS
62
2
10
-5520.000000
20
-3580.000000
30
0.000000
11
-5520.000000
21
-3700.000000
31
0.000000
39
0.000000
0
LINE
8
_2-2_柱
6
CONTINUOUS
62
2
10
-5520.000000
20
-3700.000000
30
0.000000
11
-5400.000000
21
-3700.000000
31
0.000000
39
0.000000
0
LINE
8
_2-2_柱
6
CONTINUOUS
62
2
10
-5400.000000
20
-3700.000000
30
0.000000
11
-5400.000000
21
-3580.000000
31
0.000000
39
0.000000
0
LINE
8
_2-2_柱
6
CONTINUOUS
62
2
10
-5400.000000
20
-3580.000000
30
0.000000
11
-5520.000000
21
-3580.000000
31
0.000000
39
0.000000
0
LINE
8
_2-2_柱
6
CONTINUOUS
62
2
10
-5413.933983
20
-3700.000000
30
0.000000
11
-5400.000000
21
-3686.066017
31
0.000000
39
0.000000
0
LINE
8
_2-2_柱
6
CONTINUOUS
62
2
10
-5435.147186
20
-3700.000000
30
0.000000
11
-5400.000000
21
-3664.852814
31
0.000000
39
0.000000
0
LINE
8
_2-2_柱
6
CONTINUOUS
62
2
10
-5456.360390
20
-3700.000000
30
0.000000
11
-5400.000000
21
-3643.639610
31
0.000000
39
0.000000
0
LINE
8
_2-2_柱
6
CONTINUOUS
62
2
10
-5477.573593
20
-3700.000000
30
0.000000
11
-5400.000000
21
-3622.426407
31
0.000000
39
0.000000
0
LINE
8
_2-2_柱
6
CONTINUOUS
62
2
10
-5498.786797
20
-3700.000000
30
0.000000
11
-5400.000000
21
-3601.213203
31
0.000000
39
0.000000
0
LINE
8
_2-2_柱
6
CONTINUOUS
62
2
10
-5520.000000
20
-3700.000000
30
0.000000
11
-5400.000000
21
-3580.000000
31
0.000000
39
0.000000
0
LINE
8
_2-2_柱
6
CONTINUOUS
62
2
10
-5520.000000
20
-3678.786797
30
0.000000
11
-5421.213203
21
-3580.000000
31
0.000000
39
0.000000
0
LINE
8
_2-2_柱
6
CONTINUOUS
62
2
10
-5520.000000
20
-3657.573593
30
0.000000
11
-5442.426407
21
-3580.000000
31
0.000000
39
0.000000
0
LINE
8
_2-2_柱
6
CONTINUOUS
62
2
10
-5520.000000
20
-3636.360390
30
0.000000
11
-5463.639610
21
-3580.000000
31
0.000000
39
0.000000
0
LINE
8
_2-2_柱
6
CONTINUOUS
62
2
10
-5520.000000
20
-3615.147186
30
0.000000
11
-5484.852814
21
-3580.000000
31
0.000000
39
0.000000
0
LINE
8
_2-2_柱
6
CONTINUOUS
62
2
10
-5520.000000
20
-3593.933983
30
0.000000
11
-5506.066017
21
-3580.000000
31
0.000000
39
0.000000
0
LINE
8
_2-2_柱
6
CONTINUOUS
62
2
10
-970.000000
20
-2670.000000
30
0.000000
11
-970.000000
21
-2790.000000
31
0.000000
39
0.000000
0
LINE
8
_2-2_柱
6
CONTINUOUS
62
2
10
-970.000000
20
-2790.000000
30
0.000000
11
-850.000000
21
-2790.000000
31
0.000000
39
0.000000
0
LINE
8
_2-2_柱
6
CONTINUOUS
62
2
10
-850.000000
20
-2790.000000
30
0.000000
11
-850.000000
21
-2670.000000
31
0.000000
39
0.000000
0
LINE
8
_2-2_柱
6
CONTINUOUS
62
2
10
-850.000000
20
-2670.000000
30
0.000000
11
-970.000000
21
-2670.000000
31
0.000000
39
0.000000
0
LINE
8
_2-2_柱
6
CONTINUOUS
62
7
10
-970.000000
20
-2670.000000
30
0.000000
11
-850.000000
21
-2790.000000
31
0.000000
39
0.000000
0
LINE
8
_2-2_柱
6
CONTINUOUS
62
7
10
-970.000000
20
-2790.000000
30
0.000000
11
-850.000000
21
-2670.000000
31
0.000000
39
0.000000
0
LINE
8
_2-2_柱
6
CONTINUOUS
62
2
10
1760.000000
20
-850.000000
30
0.000000
11
1760.000000
21
-970.000000
31
0.000000
39
0.000000
0
LINE
8
_2-2_柱
6
CONTINUOUS
62
2
10
1760.000000
20
-970.000000
30
0.000000
11
1880.000000
21
-970.000000
31
0.000000
39
0.000000
0
LINE
8
_2-2_柱
6
CONTINUOUS
62
2
10
1880.000000
20
-970.000000
30
0.000000
11
1880.000000
21
-850.000000
31
0.000000
39
0.000000
0
LINE
8
_2-2_柱
6
CONTINUOUS
62
2
10
1880.000000
20
-850.000000
30
0.000000
11
1760.000000
21
-850.000000
31
0.000000
39
0.000000
0
LINE
8
_2-2_柱
6
CONTINUOUS
62
7
10
1760.000000
20
-850.000000
30
0.000000
11
1880.000000
21
-970.000000
31
0.000000
39
0.000000
0
LINE
8
_2-2_柱
6
CONTINUOUS
62
7
10
1760.000000
20
-970.000000
30
0.000000
11
1880.000000
21
-850.000000
31
0.000000
39
0.000000
0
LINE
8
_2-4_雑仕上
6
CONTINUOUS
62
4
10
-1683.500000
20
1774.500000
30
0.000000
11
-1904.500000
21
1885.000000
31
0.000000
39
0.000000
0
LINE
8
_2-4_雑仕上
6
CONTINUOUS
62
4
10
-2096.114562
20
1980.807281
30
0.000000
11
-2275.000000
21
1846.643202
31
0.000000
39
0.000000
0
LINE
8
_2-4_雑仕上
6
CONTINUOUS
62
4
10
-2275.000000
20
1846.643202
30
0.000000
11
-2275.000000
21
2293.856798
31
0.000000
39
0.000000
0
LINE
8
_2-4_雑仕上
6
CONTINUOUS
62
4
10
-2275.000000
20
2293.856798
30
0.000000
11
-2453.885438
21
2159.692719
31
0.000000
39
0.000000
0
LINE
8
_2-4_雑仕上
6
CONTINUOUS
62
4
10
-2657.500000
20
2261.500000
30
0.000000
11
-3048.500000
21
2457.000000
31
0.000000
39
0.000000
0
LINE
8
_2-D_寸法
6
CONTINUOUS
62
7
10
4095.000000
20
-910.000000
30
0.000000
11
4095.000000
21
-3640.000000
31
0.000000
39
0.000000
0
LINE
8
_2-D_寸法
6
CONTINUOUS
62
7
10
4095.000000
20
-910.000000
30
0.000000
11
3695.000000
21
-910.000000
31
0.000000
39
0.000000
0
LINE
8
_2-D_寸法
6
CONTINUOUS
62
7
10
4095.000000
20
-3640.000000
30
0.000000
11
3695.000000
21
-3640.000000
31
0.000000
39
0.000000
0
LINE
8
_2-D_寸法
6
CONTINUOUS
62
7
10
4095.000000
20
0.000000
30
0.000000
11
4095.000000
21
-910.000000
31
0.000000
39
0.000000
0
LINE
8
_2-D_寸法
6
CONTINUOUS
62
7
10
4095.000000
20
0.000000
30
0.000000
11
3695.000000
21
0.000000
31
0.000000
39
0.000000
0
LINE
8
_2-D_寸法
6
CONTINUOUS
62
7
10
4095.000000
20
-910.000000
30
0.000000
11
3695.000000
21
-910.000000
31
0.000000
39
0.000000
0
LINE
8
_2-D_寸法
6
CONTINUOUS
62
7
10
4095.000000
20
3640.000000
30
0.000000
11
4095.000000
21
0.000000
31
0.000000
39
0.000000
0
LINE
8
_2-D_寸法
6
CONTINUOUS
62
7
10
4095.000000
20
3640.000000
30
0.000000
11
3695.000000
21
3640.000000
31
0.000000
39
0.000000
0
LINE
8
_2-D_寸法
6
CONTINUOUS
62
7
10
4095.000000
20
0.000000
30
0.000000
11
3695.000000
21
0.000000
31
0.000000
39
0.000000
0
LINE
8
_2-D_寸法
6
CONTINUOUS
62
7
10
4550.000000
20
3640.000000
30
0.000000
11
4550.000000
21
-3640.000000
31
0.000000
39
0.000000
0
LINE
8
_2-D_寸法
6
CONTINUOUS
62
7
10
4550.000000
20
3640.000000
30
0.000000
11
4150.000000
21
3640.000000
31
0.000000
39
0.000000
0
LINE
8
_2-D_寸法
6
CONTINUOUS
62
7
10
4550.000000
20
-3640.000000
30
0.000000
11
4150.000000
21
-3640.000000
31
0.000000
39
0.000000
0
LINE
8
_2-D_寸法
6
CONTINUOUS
62
7
10
-5460.000000
20
5005.000000
30
0.000000
11
-7280.000000
21
5005.000000
31
0.000000
39
0.000000
0
LINE
8
_2-D_寸法
6
CONTINUOUS
62
7
10
-5460.000000
20
5005.000000
30
0.000000
11
-5460.000000
21
4605.000000
31
0.000000
39
0.000000
0
LINE
8
_2-D_寸法
6
CONTINUOUS
62
7
10
-7280.000000
20
5005.000000
30
0.000000
11
-7280.000000
21
4605.000000
31
0.000000
39
0.000000
0
LINE
8
_2-D_寸法
6
CONTINUOUS
62
7
10
-2730.000000
20
5005.000000
30
0.000000
11
-5460.000000
21
5005.000000
31
0.000000
39
0.000000
0
LINE
8
_2-D_寸法
6
CONTINUOUS
62
7
10
-2730.000000
20
5005.000000
30
0.000000
11
-2730.000000
21
4605.000000
31
0.000000
39
0.000000
0
LINE
8
_2-D_寸法
6
CONTINUOUS
62
7
10
-5460.000000
20
5005.000000
30
0.000000
11
-5460.000000
21
4605.000000
31
0.000000
39
0.000000
0
LINE
8
_2-D_寸法
6
CONTINUOUS
62
7
10
-1820.000000
20
5005.000000
30
0.000000
11
-2730.000000
21
5005.000000
31
0.000000
39
0.000000
0
LINE
8
_2-D_寸法
6
CONTINUOUS
62
7
10
-1820.000000
20
5005.000000
30
0.000000
11
-1820.000000
21
4605.000000
31
0.000000
39
0.000000
0
LINE
8
_2-D_寸法
6
CONTINUOUS
62
7
10
-2730.000000
20
5005.000000
30
0.000000
11
-2730.000000
21
4605.000000
31
0.000000
39
0.000000
0
LINE
8
_2-D_寸法
6
CONTINUOUS
62
7
10
-910.000000
20
5005.000000
30
0.000000
11
-1820.000000
21
5005.000000
31
0.000000
39
0.000000
0
LINE
8
_2-D_寸法
6
CONTINUOUS
62
7
10
-910.000000
20
5005.000000
30
0.000000
11
-910.000000
21
4605.000000
31
0.000000
39
0.000000
0
LINE
8
_2-D_寸法
6
CONTINUOUS
62
7
10
-1820.000000
20
5005.000000
30
0.000000
11
-1820.000000
21
4605.000000
31
0.000000
39
0.000000
0
LINE
8
_2-D_寸法
6
CONTINUOUS
62
7
10
0.000000
20
5005.000000
30
0.000000
11
-910.000000
21
5005.000000
31
0.000000
39
0.000000
0
LINE
8
_2-D_寸法
6
CONTINUOUS
62
7
10
0.000000
20
5005.000000
30
0.000000
11
0.000000
21
4605.000000
31
0.000000
39
0.000000
0
LINE
8
_2-D_寸法
6
CONTINUOUS
62
7
10
-910.000000
20
5005.000000
30
0.000000
11
-910.000000
21
4605.000000
31
0.000000
39
0.000000
0
LINE
8
_2-D_寸法
6
CONTINUOUS
62
7
10
2730.000000
20
5005.000000
30
0.000000
11
0.000000
21
5005.000000
31
0.000000
39
0.000000
0
LINE
8
_2-D_寸法
6
CONTINUOUS
62
7
10
2730.000000
20
5005.000000
30
0.000000
11
2730.000000
21
4605.000000
31
0.000000
39
0.000000
0
LINE
8
_2-D_寸法
6
CONTINUOUS
62
7
10
0.000000
20
5005.000000
30
0.000000
11
0.000000
21
4605.000000
31
0.000000
39
0.000000
0
LINE
8
_2-D_寸法
6
CONTINUOUS
62
7
10
2730.000000
20
5460.000000
30
0.000000
11
-7280.000000
21
5460.000000
31
0.000000
39
0.000000
0
LINE
8
_2-D_寸法
6
CONTINUOUS
62
7
10
2730.000000
20
5460.000000
30
0.000000
11
2730.000000
21
5060.000000
31
0.000000
39
0.000000
0
LINE
8
_2-D_寸法
6
CONTINUOUS
62
7
10
-7280.000000
20
5460.000000
30
0.000000
11
-7280.000000
21
5060.000000
31
0.000000
39
0.000000
0
LINE
8
_2-D_寸法
6
CONTINUOUS
62
7
10
-8645.000000
20
0.000000
30
0.000000
11
-8645.000000
21
-3640.000000
31
0.000000
39
0.000000
0
LINE
8
_2-D_寸法
6
CONTINUOUS
62
7
10
-8645.000000
20
0.000000
30
0.000000
11
-8245.000000
21
0.000000
31
0.000000
39
0.000000
0
LINE
8
_2-D_寸法
6
CONTINUOUS
62
7
10
-8645.000000
20
-3640.000000
30
0.000000
11
-8245.000000
21
-3640.000000
31
0.000000
39
0.000000
0
LINE
8
_2-D_寸法
6
CONTINUOUS
62
7
10
-8645.000000
20
910.000000
30
0.000000
11
-8645.000000
21
0.000000
31
0.000000
39
0.000000
0
LINE
8
_2-D_寸法
6
CONTINUOUS
62
7
10
-8645.000000
20
910.000000
30
0.000000
11
-8245.000000
21
910.000000
31
0.000000
39
0.000000
0
LINE
8
_2-D_寸法
6
CONTINUOUS
62
7
10
-8645.000000
20
0.000000
30
0.000000
11
-8245.000000
21
0.000000
31
0.000000
39
0.000000
0
LINE
8
_2-D_寸法
6
CONTINUOUS
62
7
10
-8645.000000
20
1820.000000
30
0.000000
11
-8645.000000
21
910.000000
31
0.000000
39
0.000000
0
LINE
8
_2-D_寸法
6
CONTINUOUS
62
7
10
-8645.000000
20
1820.000000
30
0.000000
11
-8245.000000
21
1820.000000
31
0.000000
39
0.000000
0
LINE
8
_2-D_寸法
6
CONTINUOUS
62
7
10
-8645.000000
20
910.000000
30
0.000000
11
-8245.000000
21
910.000000
31
0.000000
39
0.000000
0
LINE
8
_2-D_寸法
6
CONTINUOUS
62
7
10
-8645.000000
20
3640.000000
30
0.000000
11
-8645.000000
21
1820.000000
31
0.000000
39
0.000000
0
LINE
8
_2-D_寸法
6
CONTINUOUS
62
7
10
-8645.000000
20
3640.000000
30
0.000000
11
-8245.000000
21
3640.000000
31
0.000000
39
0.000000
0
LINE
8
_2-D_寸法
6
CONTINUOUS
62
7
10
-8645.000000
20
1820.000000
30
0.000000
11
-8245.000000
21
1820.000000
31
0.000000
39
0.000000
0
LINE
8
_2-D_寸法
6
CONTINUOUS
62
7
10
-9100.000000
20
3640.000000
30
0.000000
11
-9100.000000
21
-3640.000000
31
0.000000
39
0.000000
0
LINE
8
_2-D_寸法
6
CONTINUOUS
62
7
10
-9100.000000
20
3640.000000
30
0.000000
11
-8700.000000
21
3640.000000
31
0.000000
39
0.000000
0
LINE
8
_2-D_寸法
6
CONTINUOUS
62
7
10
-9100.000000
20
-3640.000000
30
0.000000
11
-8700.000000
21
-3640.000000
31
0.000000
39
0.000000
0
LINE
8
_2-D_寸法
6
CONTINUOUS
62
7
10
2730.000000
20
-6188.000000
30
0.000000
11
-7280.000000
21
-6188.000000
31
0.000000
39
0.000000
0
LINE
8
_2-D_寸法
6
CONTINUOUS
62
7
10
2730.000000
20
-6188.000000
30
0.000000
11
2730.000000
21
-5788.000000
31
0.000000
39
0.000000
0
LINE
8
_2-D_寸法
6
CONTINUOUS
62
7
10
-7280.000000
20
-6188.000000
30
0.000000
11
-7280.000000
21
-5788.000000
31
0.000000
39
0.000000
0
LINE
8
_2-D_寸法
6
CONTINUOUS
62
7
10
2730.000000
20
-5733.000000
30
0.000000
11
-910.000000
21
-5733.000000
31
0.000000
39
0.000000
0
LINE
8
_2-D_寸法
6
CONTINUOUS
62
7
10
2730.000000
20
-5733.000000
30
0.000000
11
2730.000000
21
-5333.000000
31
0.000000
39
0.000000
0
LINE
8
_2-D_寸法
6
CONTINUOUS
62
7
10
-910.000000
20
-5733.000000
30
0.000000
11
-910.000000
21
-5333.000000
31
0.000000
39
0.000000
0
LINE
8
_2-D_寸法
6
CONTINUOUS
62
7
10
-910.000000
20
-5733.000000
30
0.000000
11
-4550.000000
21
-5733.000000
31
0.000000
39
0.000000
0
LINE
8
_2-D_寸法
6
CONTINUOUS
62
7
10
-910.000000
20
-5733.000000
30
0.000000
11
-910.000000
21
-5333.000000
31
0.000000
39
0.000000
0
LINE
8
_2-D_寸法
6
CONTINUOUS
62
7
10
-4550.000000
20
-5733.000000
30
0.000000
11
-4550.000000
21
-5333.000000
31
0.000000
39
0.000000
0
LINE
8
_2-D_寸法
6
CONTINUOUS
62
7
10
-4550.000000
20
-5733.000000
30
0.000000
11
-7280.000000
21
-5733.000000
31
0.000000
39
0.000000
0
LINE
8
_2-D_寸法
6
CONTINUOUS
62
7
10
-4550.000000
20
-5733.000000
30
0.000000
11
-4550.000000
21
-5333.000000
31
0.000000
39
0.000000
0
LINE
8
_2-D_寸法
6
CONTINUOUS
62
7
10
-7280.000000
20
-5733.000000
30
0.000000
11
-7280.000000
21
-5333.000000
31
0.000000
39
0.000000
0
LINE
8
_2-2_柱
6
CONTINUOUS
62
2
10
-6430.000000
20
3700.000000
30
0.000000
11
-6430.000000
21
3580.000000
31
0.000000
39
0.000000
0
LINE
8
_2-2_柱
6
CONTINUOUS
62
2
10
-6430.000000
20
3580.000000
30
0.000000
11
-6310.000000
21
3580.000000
31
0.000000
39
0.000000
0
LINE
8
_2-2_柱
6
CONTINUOUS
62
2
10
-6310.000000
20
3580.000000
30
0.000000
11
-6310.000000
21
3700.000000
31
0.000000
39
0.000000
0
LINE
8
_2-2_柱
6
CONTINUOUS
62
2
10
-6310.000000
20
3700.000000
30
0.000000
11
-6430.000000
21
3700.000000
31
0.000000
39
0.000000
0
LINE
8
_2-2_柱
6
CONTINUOUS
62
2
10
-6323.933983
20
3580.000000
30
0.000000
11
-6310.000000
21
3593.933983
31
0.000000
39
0.000000
0
LINE
8
_2-2_柱
6
CONTINUOUS
62
2
10
-6345.147186
20
3580.000000
30
0.000000
11
-6310.000000
21
3615.147186
31
0.000000
39
0.000000
0
LINE
8
_2-2_柱
6
CONTINUOUS
62
2
10
-6366.360390
20
3580.000000
30
0.000000
11
-6310.000000
21
3636.360390
31
0.000000
39
0.000000
0
LINE
8
_2-2_柱
6
CONTINUOUS
62
2
10
-6387.573593
20
3580.000000
30
0.000000
11
-6310.000000
21
3657.573593
31
0.000000
39
0.000000
0
LINE
8
_2-2_柱
6
CONTINUOUS
62
2
10
-6408.786797
20
3580.000000
30
0.000000
11
-6310.000000
21
3678.786797
31
0.000000
39
0.000000
0
LINE
8
_2-2_柱
6
CONTINUOUS
62
2
10
-6430.000000
20
3580.000000
30
0.000000
11
-6310.000000
21
3700.000000
31
0.000000
39
0.000000
0
LINE
8
_2-2_柱
6
CONTINUOUS
62
2
10
-6430.000000
20
3601.213203
30
0.000000
11
-6331.213203
21
3700.000000
31
0.000000
39
0.000000
0
LINE
8
_2-2_柱
6
CONTINUOUS
62
2
10
-6430.000000
20
3622.426407
30
0.000000
11
-6352.426407
21
3700.000000
31
0.000000
39
0.000000
0
LINE
8
_2-2_柱
6
CONTINUOUS
62
2
10
-6430.000000
20
3643.639610
30
0.000000
11
-6373.639610
21
3700.000000
31
0.000000
39
0.000000
0
LINE
8
_2-2_柱
6
CONTINUOUS
62
2
10
-6430.000000
20
3664.852814
30
0.000000
11
-6394.852814
21
3700.000000
31
0.000000
39
0.000000
0
LINE
8
_2-2_柱
6
CONTINUOUS
62
2
10
-6430.000000
20
3686.066017
30
0.000000
11
-6416.066017
21
3700.000000
31
0.000000
39
0.000000
0
LINE
8
_2-2_柱
6
CONTINUOUS
62
2
10
-6430.000000
20
-3580.000000
30
0.000000
11
-6430.000000
21
-3700.000000
31
0.000000
39
0.000000
0
LINE
8
_2-2_柱
6
CONTINUOUS
62
2
10
-6430.000000
20
-3700.000000
30
0.000000
11
-6310.000000
21
-3700.000000
31
0.000000
39
0.000000
0
LINE
8
_2-2_柱
6
CONTINUOUS
62
2
10
-6310.000000
20
-3700.000000
30
0.000000
11
-6310.000000
21
-3580.000000
31
0.000000
39
0.000000
0
LINE
8
_2-2_柱
6
CONTINUOUS
62
2
10
-6310.000000
20
-3580.000000
30
0.000000
11
-6430.000000
21
-3580.000000
31
0.000000
39
0.000000
0
LINE
8
_2-2_柱
6
CONTINUOUS
62
2
10
-6323.933983
20
-3700.000000
30
0.000000
11
-6310.000000
21
-3686.066017
31
0.000000
39
0.000000
0
LINE
8
_2-2_柱
6
CONTINUOUS
62
2
10
-6345.147186
20
-3700.000000
30
0.000000
11
-6310.000000
21
-3664.852814
31
0.000000
39
0.000000
0
LINE
8
_2-2_柱
6
CONTINUOUS
62
2
10
-6366.360390
20
-3700.000000
30
0.000000
11
-6310.000000
21
-3643.639610
31
0.000000
39
0.000000
0
LINE
8
_2-2_柱
6
CONTINUOUS
62
2
10
-6387.573593
20
-3700.000000
30
0.000000
11
-6310.000000
21
-3622.426407
31
0.000000
39
0.000000
0
LINE
8
_2-2_柱
6
CONTINUOUS
62
2
10
-6408.786797
20
-3700.000000
30
0.000000
11
-6310.000000
21
-3601.213203
31
0.000000
39
0.000000
0
LINE
8
_2-2_柱
6
CONTINUOUS
62
2
10
-6430.000000
20
-3700.000000
30
0.000000
11
-6310.000000
21
-3580.000000
31
0.000000
39
0.000000
0
LINE
8
_2-2_柱
6
CONTINUOUS
62
2
10
-6430.000000
20
-3678.786797
30
0.000000
11
-6331.213203
21
-3580.000000
31
0.000000
39
0.000000
0
LINE
8
_2-2_柱
6
CONTINUOUS
62
2
10
-6430.000000
20
-3657.573593
30
0.000000
11
-6352.426407
21
-3580.000000
31
0.000000
39
0.000000
0
LINE
8
_2-2_柱
6
CONTINUOUS
62
2
10
-6430.000000
20
-3636.360390
30
0.000000
11
-6373.639610
21
-3580.000000
31
0.000000
39
0.000000
0
LINE
8
_2-2_柱
6
CONTINUOUS
62
2
10
-6430.000000
20
-3615.147186
30
0.000000
11
-6394.852814
21
-3580.000000
31
0.000000
39
0.000000
0
LINE
8
_2-2_柱
6
CONTINUOUS
62
2
10
-6430.000000
20
-3593.933983
30
0.000000
11
-6416.066017
21
-3580.000000
31
0.000000
39
0.000000
0
LINE
8
_2-4_雑仕上
6
CONTINUOUS
62
4
10
-7220.000000
20
-3580.000000
30
0.000000
11
-7220.000000
21
-60.000000
31
0.000000
39
0.000000
0
LINE
8
_2-4_雑仕上
6
CONTINUOUS
62
4
10
-7220.000000
20
-2700.000000
30
0.000000
11
-5480.000000
21
-2700.000000
31
0.000000
39
0.000000
0
LINE
8
_2-4_雑仕上
6
CONTINUOUS
62
4
10
-5480.000000
20
-60.000000
30
0.000000
11
-5480.000000
21
-3580.000000
31
0.000000
39
0.000000
0
LINE
8
_2-4_雑仕上
6
CONTINUOUS
62
4
10
-4610.000000
20
-3580.000000
30
0.000000
11
-7220.000000
21
-3580.000000
31
0.000000
39
0.000000
0
LINE
8
_2-4_雑仕上
6
CONTINUOUS
62
4
10
-7220.000000
20
-940.000000
30
0.000000
11
-5480.000000
21
-940.000000
31
0.000000
39
0.000000
0
LINE
8
_2-4_雑仕上
6
CONTINUOUS
62
4
10
-6350.000000
20
-940.000000
30
0.000000
11
-6350.000000
21
-2700.000000
31
0.000000
39
0.000000
0
LINE
8
_2-4_雑仕上
6
CONTINUOUS
62
4
10
-7220.000000
20
-60.000000
30
0.000000
11
-4610.000000
21
-60.000000
31
0.000000
39
0.000000
0
LINE
8
_2-4_雑仕上
6
CONTINUOUS
62
4
10
-5480.000000
20
-1820.000000
30
0.000000
11
-4610.000000
21
-1820.000000
31
0.000000
39
0.000000
0
LINE
8
_2-4_雑仕上
6
CONTINUOUS
62
4
10
-4610.000000
20
-60.000000
30
0.000000
11
-4610.000000
21
-3580.000000
31
0.000000
39
0.000000
0
LINE
8
_2-7_家具
6
CONTINUOUS
62
4
10
-5275.499978
20
3184.000089
30
0.000000
11
-4980.499983
21
3184.000089
31
0.000000
39
0.000000
0
LINE
8
_2-7_家具
6
CONTINUOUS
62
4
10
-4980.499983
20
3184.000089
30
0.000000
11
-4980.499983
21
3204.000091
31
0.000000
39
0.000000
0
LINE
8
_2-7_家具
6
CONTINUOUS
62
4
10
-4980.499983
20
3204.000091
30
0.000000
11
-5275.499978
21
3204.000091
31
0.000000
39
0.000000
0
LINE
8
_2-7_家具
6
CONTINUOUS
62
4
10
-5275.499978
20
3204.000091
30
0.000000
11
-5275.499978
21
3184.000089
31
0.000000
39
0.000000
0
LINE
8
_2-7_家具
6
CONTINUOUS
62
4
10
-4980.499983
20
3184.000089
30
0.000000
11
-5275.499978
21
3184.000089
31
0.000000
39
0.000000
0
LINE
8
_2-7_家具
6
CONTINUOUS
62
4
10
-4980.499983
20
3204.000091
30
0.000000
11
-4980.499983
21
3184.000089
31
0.000000
39
0.000000
0
LINE
8
_2-7_家具
6
CONTINUOUS
62
4
10
-5275.499978
20
3204.000091
30
0.000000
11
-4980.499983
21
3204.000091
31
0.000000
39
0.000000
0
LINE
8
_2-7_家具
6
CONTINUOUS
62
4
10
-5275.499978
20
3184.000089
30
0.000000
11
-5275.499978
21
3204.000091
31
0.000000
39
0.000000
0
LINE
8
_2-7_家具
6
CONTINUOUS
62
4
10
-4975.499983
20
3184.000089
30
0.000000
11
-4530.499992
21
3184.000089
31
0.000000
39
0.000000
0
LINE
8
_2-7_家具
6
CONTINUOUS
62
4
10
-4530.499992
20
3184.000089
30
0.000000
11
-4530.499992
21
3204.000091
31
0.000000
39
0.000000
0
LINE
8
_2-7_家具
6
CONTINUOUS
62
4
10
-4530.499992
20
3204.000091
30
0.000000
11
-4975.499983
21
3204.000091
31
0.000000
39
0.000000
0
LINE
8
_2-7_家具
6
CONTINUOUS
62
4
10
-4975.499983
20
3204.000091
30
0.000000
11
-4975.499983
21
3184.000089
31
0.000000
39
0.000000
0
LINE
8
_2-7_家具
6
CONTINUOUS
62
4
10
-4530.499992
20
3184.000089
30
0.000000
11
-4975.499983
21
3184.000089
31
0.000000
39
0.000000
0
LINE
8
_2-7_家具
6
CONTINUOUS
62
4
10
-4530.499992
20
3204.000091
30
0.000000
11
-4530.499992
21
3184.000089
31
0.000000
39
0.000000
0
LINE
8
_2-7_家具
6
CONTINUOUS
62
4
10
-4975.499983
20
3204.000091
30
0.000000
11
-4530.499992
21
3204.000091
31
0.000000
39
0.000000
0
LINE
8
_2-7_家具
6
CONTINUOUS
62
4
10
-4975.499983
20
3184.000089
30
0.000000
11
-4975.499983
21
3204.000091
31
0.000000
39
0.000000
0
LINE
8
_2-7_家具
6
CONTINUOUS
62
4
10
-4525.499992
20
3184.000089
30
0.000000
11
-4080.500000
21
3184.000089
31
0.000000
39
0.000000
0
LINE
8
_2-7_家具
6
CONTINUOUS
62
4
10
-4080.500000
20
3184.000089
30
0.000000
11
-4080.500000
21
3204.000091
31
0.000000
39
0.000000
0
LINE
8
_2-7_家具
6
CONTINUOUS
62
4
10
-4080.500000
20
3204.000091
30
0.000000
11
-4525.499992
21
3204.000091
31
0.000000
39
0.000000
0
LINE
8
_2-7_家具
6
CONTINUOUS
62
4
10
-4525.499992
20
3204.000091
30
0.000000
11
-4525.499992
21
3184.000089
31
0.000000
39
0.000000
0
LINE
8
_2-7_家具
6
CONTINUOUS
62
4
10
-4080.500000
20
3184.000089
30
0.000000
11
-4525.499992
21
3184.000089
31
0.000000
39
0.000000
0
LINE
8
_2-7_家具
6
CONTINUOUS
62
4
10
-4080.500000
20
3204.000091
30
0.000000
11
-4080.500000
21
3184.000089
31
0.000000
39
0.000000
0
LINE
8
_2-7_家具
6
CONTINUOUS
62
4
10
-4525.499992
20
3204.000091
30
0.000000
11
-4080.500000
21
3204.000091
31
0.000000
39
0.000000
0
LINE
8
_2-7_家具
6
CONTINUOUS
62
4
10
-4525.499992
20
3184.000089
30
0.000000
11
-4525.499992
21
3204.000091
31
0.000000
39
0.000000
0
LINE
8
_2-7_家具
6
CONTINUOUS
62
4
10
-4075.500000
20
3184.000089
30
0.000000
11
-3630.500008
21
3184.000089
31
0.000000
39
0.000000
0
LINE
8
_2-7_家具
6
CONTINUOUS
62
4
10
-3630.500008
20
3184.000089
30
0.000000
11
-3630.500008
21
3204.000091
31
0.000000
39
0.000000
0
LINE
8
_2-7_家具
6
CONTINUOUS
62
4
10
-3630.500008
20
3204.000091
30
0.000000
11
-4075.500000
21
3204.000091
31
0.000000
39
0.000000
0
LINE
8
_2-7_家具
6
CONTINUOUS
62
4
10
-4075.500000
20
3204.000091
30
0.000000
11
-4075.500000
21
3184.000089
31
0.000000
39
0.000000
0
LINE
8
_2-7_家具
6
CONTINUOUS
62
4
10
-3630.500008
20
3184.000089
30
0.000000
11
-4075.500000
21
3184.000089
31
0.000000
39
0.000000
0
LINE
8
_2-7_家具
6
CONTINUOUS
62
4
10
-3630.500008
20
3204.000091
30
0.000000
11
-3630.500008
21
3184.000089
31
0.000000
39
0.000000
0
LINE
8
_2-7_家具
6
CONTINUOUS
62
4
10
-4075.500000
20
3204.000091
30
0.000000
11
-3630.500008
21
3204.000091
31
0.000000
39
0.000000
0
LINE
8
_2-7_家具
6
CONTINUOUS
62
4
10
-4075.500000
20
3184.000089
30
0.000000
11
-4075.500000
21
3204.000091
31
0.000000
39
0.000000
0
LINE
8
_2-7_家具
6
CONTINUOUS
62
4
10
-5277.999978
20
3204.000060
30
0.000000
11
-3628.000008
21
3204.000121
31
0.000000
39
0.000000
0
LINE
8
_2-7_家具
6
CONTINUOUS
62
4
10
-3628.000008
20
3204.000121
30
0.000000
11
-3628.000008
21
3548.999969
31
0.000000
39
0.000000
0
LINE
8
_2-7_家具
6
CONTINUOUS
62
4
10
-3628.000008
20
3548.999969
30
0.000000
11
-5277.999978
21
3548.999908
31
0.000000
39
0.000000
0
LINE
8
_2-7_家具
6
CONTINUOUS
62
4
10
-5277.999978
20
3548.999908
30
0.000000
11
-5277.999978
21
3204.000060
31
0.000000
39
0.000000
0
LINE
8
_2-7_家具
6
CONTINUOUS
62
4
10
-3628.000008
20
3548.999969
30
0.000000
11
-3628.000008
21
3204.000121
31
0.000000
39
0.000000
0
LINE
8
_2-7_家具
6
CONTINUOUS
62
4
10
-5277.999978
20
3548.999908
30
0.000000
11
-3628.000008
21
3548.999969
31
0.000000
39
0.000000
0
LINE
8
_2-7_家具
6
CONTINUOUS
62
4
10
-5277.999978
20
3204.000060
30
0.000000
11
-5277.999978
21
3548.999908
31
0.000000
39
0.000000
0
LINE
8
_2-7_家具
6
CONTINUOUS
62
4
10
-3628.000008
20
3204.000121
30
0.000000
11
-5277.999978
21
3204.000060
31
0.000000
39
0.000000
0
LINE
8
_2-7_家具
6
CONTINUOUS
62
4
10
-3628.000008
20
3548.999786
30
0.000000
11
-2878.000022
21
3548.999786
31
0.000000
39
0.000000
0
LINE
8
_2-7_家具
6
CONTINUOUS
62
4
10
-3628.000008
20
3168.999966
30
0.000000
11
-3628.000008
21
2943.999762
31
0.000000
39
0.000000
0
LINE
8
_2-7_家具
6
CONTINUOUS
62
4
10
-3628.000008
20
2943.999762
30
0.000000
11
-2878.000022
21
2943.999762
31
0.000000
39
0.000000
0
LINE
8
_2-7_家具
6
CONTINUOUS
62
4
10
-2878.000022
20
2943.999762
30
0.000000
11
-2878.000022
21
3168.999966
31
0.000000
39
0.000000
0
LINE
8
_2-7_家具
6
CONTINUOUS
62
4
10
-2878.000022
20
3168.999966
30
0.000000
11
-3628.000008
21
3168.999966
31
0.000000
39
0.000000
0
LINE
8
_2-7_家具
6
CONTINUOUS
62
4
10
-3628.000008
20
3183.999631
30
0.000000
11
-3628.000008
21
3168.999966
31
0.000000
39
0.000000
0
LINE
8
_2-7_家具
6
CONTINUOUS
62
4
10
-3628.000008
20
3168.999966
30
0.000000
11
-2878.000022
21
3168.999966
31
0.000000
39
0.000000
0
LINE
8
_2-7_家具
6
CONTINUOUS
62
4
10
-2878.000022
20
3168.999966
30
0.000000
11
-2878.000022
21
3183.999631
31
0.000000
39
0.000000
0
LINE
8
_2-7_家具
6
CONTINUOUS
62
4
10
-2878.000022
20
3183.999814
30
0.000000
11
-3628.000008
21
3183.999814
31
0.000000
39
0.000000
0
LINE
8
_2-7_家具
6
CONTINUOUS
62
4
10
-3628.000008
20
3548.999786
30
0.000000
11
-3628.000008
21
3183.999814
31
0.000000
39
0.000000
0
LINE
8
_2-7_家具
6
CONTINUOUS
62
4
10
-3628.000008
20
3183.999814
30
0.000000
11
-2878.000022
21
3183.999814
31
0.000000
39
0.000000
0
LINE
8
_2-7_家具
6
CONTINUOUS
62
4
10
-2878.000022
20
3183.999814
30
0.000000
11
-2878.000022
21
3548.999786
31
0.000000
39
0.000000
0
LINE
8
_2-7_家具
6
CONTINUOUS
62
4
10
-2878.000022
20
3548.999786
30
0.000000
11
-3628.000008
21
3548.999786
31
0.000000
39
0.000000
0
LINE
8
_2-7_家具
6
CONTINUOUS
62
4
10
-2878.000022
20
3548.999786
30
0.000000
11
-2878.000022
21
3183.999814
31
0.000000
39
0.000000
0
LINE
8
_2-7_家具
6
CONTINUOUS
62
4
10
-3628.000008
20
2943.999762
30
0.000000
11
-3628.000008
21
3168.999966
31
0.000000
39
0.000000
0
LINE
8
_2-7_家具
6
CONTINUOUS
62
4
10
-3628.000008
20
3168.999966
30
0.000000
11
-3628.000008
21
3183.999631
31
0.000000
39
0.000000
0
LINE
8
_2-7_家具
6
CONTINUOUS
62
4
10
-2878.000022
20
3168.999966
30
0.000000
11
-2878.000022
21
2943.999762
31
0.000000
39
0.000000
0
LINE
8
_2-7_家具
6
CONTINUOUS
62
4
10
-2878.000022
20
3183.999631
30
0.000000
11
-2878.000022
21
3168.999966
31
0.000000
39
0.000000
0
LINE
8
_2-7_家具
6
CONTINUOUS
62
4
10
-3628.000008
20
3183.999814
30
0.000000
11
-3628.000008
21
3548.999786
31
0.000000
39
0.000000
0
LINE
8
_2-7_家具
6
CONTINUOUS
62
4
10
-2878.000022
20
2943.999762
30
0.000000
11
-3628.000008
21
2943.999762
31
0.000000
39
0.000000
0
LINE
8
_2-7_家具
6
CONTINUOUS
62
4
10
-3078.000019
20
2960.301880
30
0.000000
11
-3078.000019
21
2981.992594
31
0.000000
39
0.000000
0
LINE
8
_2-7_家具
6
CONTINUOUS
62
4
10
-3078.000019
20
2981.992594
30
0.000000
11
-3078.000019
21
2983.542826
31
0.000000
39
0.000000
0
LINE
8
_2-7_家具
6
CONTINUOUS
62
4
10
-2928.000022
20
2960.301880
30
0.000000
11
-3078.000019
21
2960.301880
31
0.000000
39
0.000000
0
LINE
8
_2-7_家具
6
CONTINUOUS
62
4
10
-2928.000022
20
2983.542826
30
0.000000
11
-2928.000022
21
2981.992586
31
0.000000
39
0.000000
0
LINE
8
_2-7_家具
6
CONTINUOUS
62
4
10
-2928.000022
20
2981.992586
30
0.000000
11
-2928.000022
21
2960.301880
31
0.000000
39
0.000000
0
LINE
8
_2-7_家具
6
CONTINUOUS
62
4
10
-2928.000022
20
2983.542826
30
0.000000
11
-3078.000019
21
2983.542826
31
0.000000
39
0.000000
0
LINE
8
_2-7_家具
6
CONTINUOUS
62
4
10
-3078.000019
20
2983.542826
30
0.000000
11
-3078.000019
21
2981.992594
31
0.000000
39
0.000000
0
LINE
8
_2-7_家具
6
CONTINUOUS
62
4
10
-3078.000019
20
2981.992594
30
0.000000
11
-2928.000022
21
2981.992586
31
0.000000
39
0.000000
0
LINE
8
_2-7_家具
6
CONTINUOUS
62
4
10
-2928.000022
20
2981.992586
30
0.000000
11
-2928.000022
21
2983.542826
31
0.000000
39
0.000000
0
LINE
8
_2-7_家具
6
CONTINUOUS
62
4
10
-3078.000019
20
2983.542826
30
0.000000
11
-2928.000022
21
2983.542826
31
0.000000
39
0.000000
0
LINE
8
_2-7_家具
6
CONTINUOUS
62
4
10
-3078.000019
20
2960.301880
30
0.000000
11
-2928.000022
21
2960.301880
31
0.000000
39
0.000000
0
LINE
8
_2-7_家具
6
CONTINUOUS
62
4
10
-2928.000022
20
2960.301880
30
0.000000
11
-2928.000022
21
2981.992586
31
0.000000
39
0.000000
0
LINE
8
_2-7_家具
6
CONTINUOUS
62
4
10
-2928.000022
20
2981.992586
30
0.000000
11
-3078.000019
21
2981.992594
31
0.000000
39
0.000000
0
LINE
8
_2-7_家具
6
CONTINUOUS
62
4
10
-3078.000019
20
2981.992594
30
0.000000
11
-3078.000019
21
2960.301880
31
0.000000
39
0.000000
0
LINE
8
_2-7_家具
6
CONTINUOUS
62
4
10
-2878.000022
20
2898.999819
30
0.000000
11
-5278.000009
21
2898.999819
31
0.000000
39
0.000000
0
LINE
8
_2-7_家具
6
CONTINUOUS
62
4
10
-5278.000009
20
2903.999820
30
0.000000
11
-5278.000009
21
3204.000060
31
0.000000
39
0.000000
0
LINE
8
_2-7_家具
6
CONTINUOUS
62
4
10
-4549.865347
20
2985.572916
30
0.000000
11
-5119.865336
21
2985.572916
31
0.000000
39
0.000000
0
LINE
8
_2-7_家具
6
CONTINUOUS
62
4
10
-5278.000009
20
2903.999820
30
0.000000
11
-2878.000022
21
2903.999820
31
0.000000
39
0.000000
0
LINE
8
_2-7_家具
6
CONTINUOUS
62
4
10
-4511.515861
20
2992.155574
30
0.000000
11
-4549.865347
21
2985.572916
31
0.000000
39
0.000000
0
LINE
8
_2-7_家具
6
CONTINUOUS
62
4
10
-2878.000022
20
2903.999820
30
0.000000
11
-2878.000022
21
2943.999762
31
0.000000
39
0.000000
0
LINE
8
_2-7_家具
6
CONTINUOUS
62
4
10
-4477.556695
20
3011.149946
30
0.000000
11
-4511.515861
21
2992.155574
31
0.000000
39
0.000000
0
LINE
8
_2-7_家具
6
CONTINUOUS
62
4
10
-4451.875481
20
3040.381606
30
0.000000
11
-4477.556695
21
3011.149946
31
0.000000
39
0.000000
0
LINE
8
_2-7_家具
6
CONTINUOUS
62
4
10
-4437.412285
20
3076.504000
30
0.000000
11
-4451.875481
21
3040.381606
31
0.000000
39
0.000000
0
LINE
8
_2-7_家具
6
CONTINUOUS
62
4
10
-4434.865349
20
3115.572852
30
0.000000
11
-4437.412285
21
3076.504000
31
0.000000
39
0.000000
0
LINE
8
_2-7_家具
6
CONTINUOUS
62
4
10
-4434.865349
20
3184.000089
30
0.000000
11
-4434.865349
21
3115.572852
31
0.000000
39
0.000000
0
LINE
8
_2-7_家具
6
CONTINUOUS
62
4
10
-5278.000009
20
3204.000060
30
0.000000
11
-5278.000009
21
2903.999820
31
0.000000
39
0.000000
0
LINE
8
_2-7_家具
6
CONTINUOUS
62
4
10
-5119.865336
20
2985.572916
30
0.000000
11
-5158.214824
21
2992.155574
31
0.000000
39
0.000000
0
LINE
8
_2-7_家具
6
CONTINUOUS
62
4
10
-5158.214824
20
2992.155574
30
0.000000
11
-5192.173929
21
3011.149946
31
0.000000
39
0.000000
0
LINE
8
_2-7_家具
6
CONTINUOUS
62
4
10
-5192.173929
20
3011.149946
30
0.000000
11
-5217.855204
21
3040.381591
31
0.000000
39
0.000000
0
LINE
8
_2-7_家具
6
CONTINUOUS
62
4
10
-5217.855204
20
3040.381591
30
0.000000
11
-5232.318459
21
3076.504000
31
0.000000
39
0.000000
0
LINE
8
_2-7_家具
6
CONTINUOUS
62
4
10
-5232.318459
20
3076.504000
30
0.000000
11
-5234.865334
21
3115.572852
31
0.000000
39
0.000000
0
LINE
8
_2-7_家具
6
CONTINUOUS
62
4
10
-5234.865334
20
3115.572852
30
0.000000
11
-5234.865334
21
3184.000089
31
0.000000
39
0.000000
0
LINE
8
_2-7_家具
6
CONTINUOUS
62
4
10
-2878.000022
20
2903.999820
30
0.000000
11
-2878.000022
21
2898.999819
31
0.000000
39
0.000000
0
LINE
8
_2-7_家具
6
CONTINUOUS
62
4
10
-5278.000009
20
2898.999819
30
0.000000
11
-5278.000009
21
2903.999820
31
0.000000
39
0.000000
0
LINE
8
_2-7_家具
6
CONTINUOUS
62
4
10
-2878.000022
20
2943.999762
30
0.000000
11
-2878.000022
21
2903.999820
31
0.000000
39
0.000000
0
LINE
8
_2-7_家具
6
CONTINUOUS
62
4
10
-2878.000022
20
2898.999819
30
0.000000
11
-2878.000022
21
2903.999820
31
0.000000
39
0.000000
0
LINE
8
_2-7_家具
6
CONTINUOUS
62
4
10
-5278.000009
20
2898.999819
30
0.000000
11
-2878.000022
21
2898.999819
31
0.000000
39
0.000000
0
LINE
8
_2-7_家具
6
CONTINUOUS
62
4
10
-5278.000009
20
2903.999820
30
0.000000
11
-5278.000009
21
2898.999819
31
0.000000
39
0.000000
0
LINE
8
_2-7_家具
6
CONTINUOUS
62
4
10
-2878.000022
20
2903.999820
30
0.000000
11
-5278.000009
21
2903.999820
31
0.000000
39
0.000000
0
LINE
8
_2-7_家具
6
CONTINUOUS
62
4
10
-3654.559090
20
2966.168785
30
0.000000
11
-3652.275399
21
2954.688254
31
0.000000
39
0.000000
0
LINE
8
_2-7_家具
6
CONTINUOUS
62
4
10
-3629.559090
20
2957.508507
30
0.000000
11
-3633.219368
21
2961.168785
31
0.000000
39
0.000000
0
LINE
8
_2-7_家具
6
CONTINUOUS
62
4
10
-3645.772225
20
2944.955588
30
0.000000
11
-3636.039559
21
2938.452413
31
0.000000
39
0.000000
0
LINE
8
_2-7_家具
6
CONTINUOUS
62
4
10
-3636.039559
20
2938.452413
30
0.000000
11
-3624.559091
21
2936.168783
31
0.000000
39
0.000000
0
LINE
8
_2-7_家具
6
CONTINUOUS
62
4
10
-3624.559091
20
2936.168783
30
0.000000
11
-3031.558858
21
2936.168783
31
0.000000
39
0.000000
0
LINE
8
_2-7_家具
6
CONTINUOUS
62
4
10
-3031.558858
20
2936.168783
30
0.000000
11
-3020.078389
21
2938.452413
31
0.000000
39
0.000000
0
LINE
8
_2-7_家具
6
CONTINUOUS
62
4
10
-3654.559090
20
3184.000089
30
0.000000
11
-3654.559090
21
2966.168785
31
0.000000
39
0.000000
0
LINE
8
_2-7_家具
6
CONTINUOUS
62
4
10
-3628.000008
20
2957.090759
30
0.000000
11
-3629.559090
21
2957.508507
31
0.000000
39
0.000000
0
LINE
8
_2-7_家具
6
CONTINUOUS
62
4
10
-3652.275399
20
2954.688254
30
0.000000
11
-3645.772225
21
2944.955588
31
0.000000
39
0.000000
0
LINE
8
_2-7_家具
6
CONTINUOUS
62
4
10
-3633.219368
20
2961.168785
30
0.000000
11
-3634.559090
21
2966.168785
31
0.000000
39
0.000000
0
LINE
8
_2-7_家具
6
CONTINUOUS
62
4
10
-3634.559090
20
2966.168785
30
0.000000
11
-3634.559090
21
3184.000089
31
0.000000
39
0.000000
0
LINE
8
_2-7_家具
6
CONTINUOUS
62
4
10
-3020.078389
20
2938.452413
30
0.000000
11
-3011.776213
21
2943.999762
31
0.000000
39
0.000000
0
LINE
8
_2-7_家具
6
CONTINUOUS
62
4
10
-3020.078389
20
2938.452413
30
0.000000
11
-3031.558858
21
2936.168783
31
0.000000
39
0.000000
0
LINE
8
_2-7_家具
6
CONTINUOUS
62
4
10
-3011.776213
20
2943.999762
30
0.000000
11
-3020.078389
21
2938.452413
31
0.000000
39
0.000000
0
LINE
8
_2-7_家具
6
CONTINUOUS
62
4
10
-3634.559090
20
3184.000089
30
0.000000
11
-3634.559090
21
2966.168785
31
0.000000
39
0.000000
0
LINE
8
_2-7_家具
6
CONTINUOUS
62
4
10
-3031.558858
20
2936.168783
30
0.000000
11
-3624.559091
21
2936.168783
31
0.000000
39
0.000000
0
LINE
8
_2-7_家具
6
CONTINUOUS
62
4
10
-3654.559090
20
2966.168785
30
0.000000
11
-3654.559090
21
3184.000089
31
0.000000
39
0.000000
0
LINE
8
_2-7_家具
6
CONTINUOUS
62
4
10
-3633.219368
20
2961.168785
30
0.000000
11
-3629.559090
21
2957.508507
31
0.000000
39
0.000000
0
LINE
8
_2-7_家具
6
CONTINUOUS
62
4
10
-3629.559090
20
2957.508507
30
0.000000
11
-3628.000008
21
2957.090759
31
0.000000
39
0.000000
0
LINE
8
_2-7_家具
6
CONTINUOUS
62
4
10
-3634.559090
20
2966.168785
30
0.000000
11
-3633.219368
21
2961.168785
31
0.000000
39
0.000000
0
LINE
8
_2-7_家具
6
CONTINUOUS
62
4
10
-3652.275399
20
2954.688254
30
0.000000
11
-3654.559090
21
2966.168785
31
0.000000
39
0.000000
0
LINE
8
_2-7_家具
6
CONTINUOUS
62
4
10
-3624.559091
20
2936.168783
30
0.000000
11
-3636.039559
21
2938.452413
31
0.000000
39
0.000000
0
LINE
8
_2-7_家具
6
CONTINUOUS
62
4
10
-3636.039559
20
2938.452413
30
0.000000
11
-3645.772225
21
2944.955588
31
0.000000
39
0.000000
0
LINE
8
_2-7_家具
6
CONTINUOUS
62
4
10
-3645.772225
20
2944.955588
30
0.000000
11
-3652.275399
21
2954.688254
31
0.000000
39
0.000000
0
LINE
8
_2-7_家具
6
CONTINUOUS
62
4
10
-3531.515395
20
2898.999819
30
0.000000
11
-3521.635020
21
2897.388918
31
0.000000
39
0.000000
0
LINE
8
_2-7_家具
6
CONTINUOUS
62
4
10
-3521.635020
20
2897.388918
30
0.000000
11
-3438.724133
21
2893.999758
31
0.000000
39
0.000000
0
LINE
8
_2-7_家具
6
CONTINUOUS
62
4
10
-3438.724133
20
2893.999758
30
0.000000
11
-3345.813979
21
2897.388918
31
0.000000
39
0.000000
0
LINE
8
_2-7_家具
6
CONTINUOUS
62
4
10
-3345.813979
20
2897.388918
30
0.000000
11
-3335.933487
21
2898.999819
31
0.000000
39
0.000000
0
LINE
8
_2-7_家具
6
CONTINUOUS
62
4
10
-3438.724133
20
2893.999758
30
0.000000
11
-3521.635020
21
2897.388918
31
0.000000
39
0.000000
0
LINE
8
_2-7_家具
6
CONTINUOUS
62
4
10
-3521.635020
20
2897.388918
30
0.000000
11
-3531.515395
21
2898.999819
31
0.000000
39
0.000000
0
LINE
8
_2-7_家具
6
CONTINUOUS
62
4
10
-3345.813979
20
2897.388918
30
0.000000
11
-3438.724133
21
2893.999758
31
0.000000
39
0.000000
0
LINE
8
_2-7_家具
6
CONTINUOUS
62
4
10
-3335.933487
20
2898.999819
30
0.000000
11
-3345.813979
21
2897.388918
31
0.000000
39
0.000000
0
LINE
8
_2-7_家具
6
CONTINUOUS
62
4
10
-5122.996959
20
3009.333691
30
0.000000
11
-4546.733206
21
3009.333691
31
0.000000
39
0.000000
0
LINE
8
_2-7_家具
6
CONTINUOUS
62
4
10
-4547.280692
20
3015.759382
30
0.000000
11
-5122.449443
21
3015.759382
31
0.000000
39
0.000000
0
LINE
8
_2-7_家具
6
CONTINUOUS
62
4
10
-5123.965343
20
3009.499920
30
0.000000
11
-5122.996959
21
3009.333691
31
0.000000
39
0.000000
0
LINE
8
_2-7_家具
6
CONTINUOUS
62
4
10
-5122.449443
20
3015.759382
30
0.000000
11
-5154.237132
21
3021.215711
31
0.000000
39
0.000000
0
LINE
8
_2-7_家具
6
CONTINUOUS
62
4
10
-5156.411296
20
3015.069227
30
0.000000
11
-5144.419810
21
3013.010907
31
0.000000
39
0.000000
0
LINE
8
_2-7_家具
6
CONTINUOUS
62
4
10
-5144.419810
20
3013.010907
30
0.000000
11
-5142.051524
21
3012.604444
31
0.000000
39
0.000000
0
LINE
8
_2-7_家具
6
CONTINUOUS
62
4
10
-5142.051524
20
3012.604444
30
0.000000
11
-5126.300548
21
3009.900768
31
0.000000
39
0.000000
0
LINE
8
_2-7_家具
6
CONTINUOUS
62
4
10
-5126.300548
20
3009.900768
30
0.000000
11
-5123.965343
21
3009.499920
31
0.000000
39
0.000000
0
LINE
8
_2-7_家具
6
CONTINUOUS
62
4
10
-4513.318840
20
3015.069227
30
0.000000
11
-4484.108146
21
3031.346861
31
0.000000
39
0.000000
0
LINE
8
_2-7_家具
6
CONTINUOUS
62
4
10
-4488.169120
20
3036.369430
30
0.000000
11
-4515.492973
21
3021.215711
31
0.000000
39
0.000000
0
LINE
8
_2-7_家具
6
CONTINUOUS
62
4
10
-4546.733206
20
3009.333691
30
0.000000
11
-4513.318840
21
3015.069227
31
0.000000
39
0.000000
0
LINE
8
_2-7_家具
6
CONTINUOUS
62
4
10
-4515.492973
20
3021.215711
30
0.000000
11
-4547.280692
21
3015.759382
31
0.000000
39
0.000000
0
LINE
8
_2-7_家具
6
CONTINUOUS
62
4
10
-4462.032159
20
3056.476549
30
0.000000
11
-4449.574029
21
3087.591205
31
0.000000
39
0.000000
0
LINE
8
_2-7_家具
6
CONTINUOUS
62
4
10
-4455.859307
20
3089.016362
30
0.000000
11
-4467.534722
21
3059.856538
31
0.000000
39
0.000000
0
LINE
8
_2-7_家具
6
CONTINUOUS
62
4
10
-4484.108146
20
3031.346861
30
0.000000
11
-4462.032159
21
3056.476549
31
0.000000
39
0.000000
0
LINE
8
_2-7_家具
6
CONTINUOUS
62
4
10
-4467.534722
20
3059.856538
30
0.000000
11
-4488.169120
21
3036.369430
31
0.000000
39
0.000000
0
LINE
8
_2-7_家具
6
CONTINUOUS
62
4
10
-4447.383599
20
3122.007454
30
0.000000
11
-4447.383212
21
3184.000089
31
0.000000
39
0.000000
0
LINE
8
_2-7_家具
6
CONTINUOUS
62
4
10
-4453.808140
20
3184.000089
30
0.000000
11
-4453.808160
21
3122.216591
31
0.000000
39
0.000000
0
LINE
8
_2-7_家具
6
CONTINUOUS
62
4
10
-4449.574029
20
3087.591205
30
0.000000
11
-4447.383599
21
3122.007454
31
0.000000
39
0.000000
0
LINE
8
_2-7_家具
6
CONTINUOUS
62
4
10
-4453.808160
20
3122.216591
30
0.000000
11
-4455.859307
21
3089.016362
31
0.000000
39
0.000000
0
LINE
8
_2-7_家具
6
CONTINUOUS
62
4
10
-5220.104898
20
3087.602832
30
0.000000
11
-5207.653147
21
3056.504060
31
0.000000
39
0.000000
0
LINE
8
_2-7_家具
6
CONTINUOUS
62
4
10
-5202.097788
20
3059.916475
30
0.000000
11
-5213.759348
21
3089.041630
31
0.000000
39
0.000000
0
LINE
8
_2-7_家具
6
CONTINUOUS
62
4
10
-5222.347727
20
3122.007362
30
0.000000
11
-5220.104898
21
3087.602832
31
0.000000
39
0.000000
0
LINE
8
_2-7_家具
6
CONTINUOUS
62
4
10
-5213.759348
20
3089.041630
30
0.000000
11
-5215.922007
21
3122.216591
31
0.000000
39
0.000000
0
LINE
8
_2-7_家具
6
CONTINUOUS
62
4
10
-5185.588327
20
3031.388838
30
0.000000
11
-5156.411296
21
3015.069227
31
0.000000
39
0.000000
0
LINE
8
_2-7_家具
6
CONTINUOUS
62
4
10
-5154.237132
20
3021.215711
30
0.000000
11
-5181.488932
21
3036.458480
31
0.000000
39
0.000000
0
LINE
8
_2-7_家具
6
CONTINUOUS
62
4
10
-5207.653147
20
3056.504060
30
0.000000
11
-5185.588327
21
3031.388838
31
0.000000
39
0.000000
0
LINE
8
_2-7_家具
6
CONTINUOUS
62
4
10
-5181.488932
20
3036.458480
30
0.000000
11
-5202.097788
21
3059.916475
31
0.000000
39
0.000000
0
LINE
8
_2-7_家具
6
CONTINUOUS
62
4
10
-5215.922007
20
3122.216591
30
0.000000
11
-5215.922016
21
3184.000089
31
0.000000
39
0.000000
0
LINE
8
_2-7_家具
6
CONTINUOUS
62
4
10
-5222.341755
20
3184.000089
30
0.000000
11
-5222.347727
21
3122.007362
31
0.000000
39
0.000000
0
LINE
8
_2-7_家具
6
CONTINUOUS
62
4
10
-5215.922016
20
3184.000089
30
0.000000
11
-5215.922007
21
3122.216591
31
0.000000
39
0.000000
0
LINE
8
_2-7_家具
6
CONTINUOUS
62
4
10
-5182.738810
20
3136.199822
30
0.000000
11
-5182.738818
21
3184.000089
31
0.000000
39
0.000000
0
LINE
8
_2-7_家具
6
CONTINUOUS
62
4
10
-5215.922007
20
3122.216591
30
0.000000
11
-5213.759348
21
3089.041630
31
0.000000
39
0.000000
0
LINE
8
_2-7_家具
6
CONTINUOUS
62
4
10
-5180.772776
20
3106.040762
30
0.000000
11
-5182.738810
21
3136.199822
31
0.000000
39
0.000000
0
LINE
8
_2-7_家具
6
CONTINUOUS
62
4
10
-5213.759348
20
3089.041630
30
0.000000
11
-5202.097788
21
3059.916475
31
0.000000
39
0.000000
0
LINE
8
_2-7_家具
6
CONTINUOUS
62
4
10
-5170.171336
20
3079.563358
30
0.000000
11
-5180.772776
21
3106.040762
31
0.000000
39
0.000000
0
LINE
8
_2-7_家具
6
CONTINUOUS
62
4
10
-5202.097788
20
3059.916475
30
0.000000
11
-5181.488932
21
3036.458480
31
0.000000
39
0.000000
0
LINE
8
_2-7_家具
6
CONTINUOUS
62
4
10
-5151.436015
20
3058.237901
30
0.000000
11
-5170.171336
21
3079.563358
31
0.000000
39
0.000000
0
LINE
8
_2-7_家具
6
CONTINUOUS
62
4
10
-5181.488932
20
3036.458480
30
0.000000
11
-5154.237132
21
3021.215711
31
0.000000
39
0.000000
0
LINE
8
_2-7_家具
6
CONTINUOUS
62
4
10
-5126.661662
20
3044.380845
30
0.000000
11
-5151.436015
21
3058.237901
31
0.000000
39
0.000000
0
LINE
8
_2-7_家具
6
CONTINUOUS
62
4
10
-5154.237132
20
3021.215711
30
0.000000
11
-5122.449443
21
3015.759382
31
0.000000
39
0.000000
0
LINE
8
_2-7_家具
6
CONTINUOUS
62
4
10
-5097.763775
20
3039.420547
30
0.000000
11
-5126.661662
21
3044.380845
31
0.000000
39
0.000000
0
LINE
8
_2-7_家具
6
CONTINUOUS
62
4
10
-4488.169120
20
3036.369430
30
0.000000
11
-4467.534722
21
3059.856538
31
0.000000
39
0.000000
0
LINE
8
_2-7_家具
6
CONTINUOUS
62
4
10
-4502.386772
20
3079.508869
30
0.000000
11
-4521.145317
21
3058.156953
31
0.000000
39
0.000000
0
LINE
8
_2-7_家具
6
CONTINUOUS
62
4
10
-4467.534722
20
3059.856538
30
0.000000
11
-4455.859307
21
3089.016362
31
0.000000
39
0.000000
0
LINE
8
_2-7_家具
6
CONTINUOUS
62
4
10
-4491.772758
20
3106.017797
30
0.000000
11
-4502.386772
21
3079.508869
31
0.000000
39
0.000000
0
LINE
8
_2-7_家具
6
CONTINUOUS
62
4
10
-4515.492973
20
3021.215711
30
0.000000
11
-4488.169120
21
3036.369430
31
0.000000
39
0.000000
0
LINE
8
_2-7_家具
6
CONTINUOUS
62
4
10
-4521.145317
20
3058.156953
30
0.000000
11
-4545.985159
21
3044.380845
31
0.000000
39
0.000000
0
LINE
8
_2-7_家具
6
CONTINUOUS
62
4
10
-4547.280692
20
3015.759382
30
0.000000
11
-4515.492973
21
3021.215711
31
0.000000
39
0.000000
0
LINE
8
_2-7_家具
6
CONTINUOUS
62
4
10
-4545.985159
20
3044.380845
30
0.000000
11
-4574.883048
21
3039.420547
31
0.000000
39
0.000000
0
LINE
8
_2-7_家具
6
CONTINUOUS
62
4
10
-4455.859307
20
3089.016362
30
0.000000
11
-4453.808160
21
3122.216591
31
0.000000
39
0.000000
0
LINE
8
_2-7_家具
6
CONTINUOUS
62
4
10
-4489.908012
20
3136.199822
30
0.000000
11
-4491.772758
21
3106.017797
31
0.000000
39
0.000000
0
LINE
8
_2-7_家具
6
CONTINUOUS
62
4
10
-5122.449443
20
3015.759382
30
0.000000
11
-4547.280692
21
3015.759382
31
0.000000
39
0.000000
0
LINE
8
_2-7_家具
6
CONTINUOUS
62
4
10
-4574.883048
20
3039.420547
30
0.000000
11
-5097.763775
21
3039.420547
31
0.000000
39
0.000000
0
LINE
8
_2-7_家具
6
CONTINUOUS
62
4
10
-4453.808160
20
3122.216591
30
0.000000
11
-4453.808140
21
3184.000089
31
0.000000
39
0.000000
0
LINE
8
_2-7_家具
6
CONTINUOUS
62
4
10
-4489.908012
20
3184.000089
30
0.000000
11
-4489.908012
21
3136.199822
31
0.000000
39
0.000000
0
LINE
8
_2-7_家具
6
CONTINUOUS
62
4
10
-5182.738818
20
3184.000089
30
0.000000
11
-5182.738810
21
3136.199822
31
0.000000
39
0.000000
0
LINE
8
_2-7_家具
6
CONTINUOUS
62
4
10
-5171.024028
20
3138.907494
30
0.000000
11
-5171.024035
21
3184.000089
31
0.000000
39
0.000000
0
LINE
8
_2-7_家具
6
CONTINUOUS
62
4
10
-5182.738810
20
3136.199822
30
0.000000
11
-5180.772776
21
3106.040762
31
0.000000
39
0.000000
0
LINE
8
_2-7_家具
6
CONTINUOUS
62
4
10
-5169.168773
20
3110.448355
30
0.000000
11
-5171.024028
21
3138.907494
31
0.000000
39
0.000000
0
LINE
8
_2-7_家具
6
CONTINUOUS
62
4
10
-5180.772776
20
3106.040762
30
0.000000
11
-5170.171336
21
3079.563358
31
0.000000
39
0.000000
0
LINE
8
_2-7_家具
6
CONTINUOUS
62
4
10
-5159.487681
20
3086.269458
30
0.000000
11
-5169.168773
21
3110.448355
31
0.000000
39
0.000000
0
LINE
8
_2-7_家具
6
CONTINUOUS
62
4
10
-5170.171336
20
3079.563358
30
0.000000
11
-5151.436015
21
3058.237901
31
0.000000
39
0.000000
0
LINE
8
_2-7_家具
6
CONTINUOUS
62
4
10
-5142.432323
20
3066.856265
30
0.000000
11
-5159.487681
21
3086.269458
31
0.000000
39
0.000000
0
LINE
8
_2-7_家具
6
CONTINUOUS
62
4
10
-5151.436015
20
3058.237901
30
0.000000
11
-5126.661662
21
3044.380845
31
0.000000
39
0.000000
0
LINE
8
_2-7_家具
6
CONTINUOUS
62
4
10
-5119.879527
20
3054.241745
30
0.000000
11
-5142.432323
21
3066.856265
31
0.000000
39
0.000000
0
LINE
8
_2-7_家具
6
CONTINUOUS
62
4
10
-5126.661662
20
3044.380845
30
0.000000
11
-5097.763775
21
3039.420547
31
0.000000
39
0.000000
0
LINE
8
_2-7_家具
6
CONTINUOUS
62
4
10
-5093.014782
20
3049.630448
30
0.000000
11
-5119.879527
21
3054.241745
31
0.000000
39
0.000000
0
LINE
8
_2-7_家具
6
CONTINUOUS
62
4
10
-4521.145317
20
3058.156953
30
0.000000
11
-4502.386772
21
3079.508869
31
0.000000
39
0.000000
0
LINE
8
_2-7_家具
6
CONTINUOUS
62
4
10
-4514.813957
20
3086.216037
30
0.000000
11
-4531.884940
21
3066.784976
31
0.000000
39
0.000000
0
LINE
8
_2-7_家具
6
CONTINUOUS
62
4
10
-4502.386772
20
3079.508869
30
0.000000
11
-4491.772758
21
3106.017797
31
0.000000
39
0.000000
0
LINE
8
_2-7_家具
6
CONTINUOUS
62
4
10
-4505.124199
20
3110.416465
30
0.000000
11
-4514.813957
21
3086.216037
31
0.000000
39
0.000000
0
LINE
8
_2-7_家具
6
CONTINUOUS
62
4
10
-4545.985159
20
3044.380845
30
0.000000
11
-4521.145317
21
3058.156953
31
0.000000
39
0.000000
0
LINE
8
_2-7_家具
6
CONTINUOUS
62
4
10
-4531.884940
20
3066.784976
30
0.000000
11
-4554.498465
21
3054.243561
31
0.000000
39
0.000000
0
LINE
8
_2-7_家具
6
CONTINUOUS
62
4
10
-4574.883048
20
3039.420547
30
0.000000
11
-4545.985159
21
3044.380845
31
0.000000
39
0.000000
0
LINE
8
_2-7_家具
6
CONTINUOUS
62
4
10
-4554.498465
20
3054.243561
30
0.000000
11
-4581.373831
21
3049.630448
31
0.000000
39
0.000000
0
LINE
8
_2-7_家具
6
CONTINUOUS
62
4
10
-4491.772758
20
3106.017797
30
0.000000
11
-4489.908012
21
3136.199822
31
0.000000
39
0.000000
0
LINE
8
_2-7_家具
6
CONTINUOUS
62
4
10
-4503.364555
20
3138.897668
30
0.000000
11
-4505.124199
21
3110.416465
31
0.000000
39
0.000000
0
LINE
8
_2-7_家具
6
CONTINUOUS
62
4
10
-5097.763775
20
3039.420547
30
0.000000
11
-4574.883048
21
3039.420547
31
0.000000
39
0.000000
0
LINE
8
_2-7_家具
6
CONTINUOUS
62
4
10
-4581.373831
20
3049.630448
30
0.000000
11
-5093.014782
21
3049.630448
31
0.000000
39
0.000000
0
LINE
8
_2-7_家具
6
CONTINUOUS
62
4
10
-4489.908012
20
3136.199822
30
0.000000
11
-4489.908012
21
3184.000089
31
0.000000
39
0.000000
0
LINE
8
_2-7_家具
6
CONTINUOUS
62
4
10
-4503.364555
20
3184.000089
30
0.000000
11
-4503.364555
21
3138.897668
31
0.000000
39
0.000000
0
LINE
8
_2-7_家具
6
CONTINUOUS
62
4
10
-4503.364555
20
3138.897668
30
0.000000
11
-4503.364555
21
3184.000089
31
0.000000
39
0.000000
0
LINE
8
_2-7_家具
6
CONTINUOUS
62
4
10
-4505.124199
20
3110.416465
30
0.000000
11
-4503.364555
21
3138.897668
31
0.000000
39
0.000000
0
LINE
8
_2-7_家具
6
CONTINUOUS
62
4
10
-4514.813957
20
3086.216037
30
0.000000
11
-4505.124199
21
3110.416465
31
0.000000
39
0.000000
0
LINE
8
_2-7_家具
6
CONTINUOUS
62
4
10
-4531.884940
20
3066.784976
30
0.000000
11
-4514.813957
21
3086.216037
31
0.000000
39
0.000000
0
LINE
8
_2-7_家具
6
CONTINUOUS
62
4
10
-4554.498465
20
3054.243561
30
0.000000
11
-4531.884940
21
3066.784976
31
0.000000
39
0.000000
0
LINE
8
_2-7_家具
6
CONTINUOUS
62
4
10
-4581.373831
20
3049.630448
30
0.000000
11
-4554.498465
21
3054.243561
31
0.000000
39
0.000000
0
LINE
8
_2-7_家具
6
CONTINUOUS
62
4
10
-5171.024035
20
3184.000089
30
0.000000
11
-5171.024028
21
3138.907494
31
0.000000
39
0.000000
0
LINE
8
_2-7_家具
6
CONTINUOUS
62
4
10
-5171.024028
20
3138.907494
30
0.000000
11
-5169.168773
21
3110.448355
31
0.000000
39
0.000000
0
LINE
8
_2-7_家具
6
CONTINUOUS
62
4
10
-5169.168773
20
3110.448355
30
0.000000
11
-5159.487681
21
3086.269458
31
0.000000
39
0.000000
0
LINE
8
_2-7_家具
6
CONTINUOUS
62
4
10
-5159.487681
20
3086.269458
30
0.000000
11
-5142.432323
21
3066.856265
31
0.000000
39
0.000000
0
LINE
8
_2-7_家具
6
CONTINUOUS
62
4
10
-5142.432323
20
3066.856265
30
0.000000
11
-5119.879527
21
3054.241745
31
0.000000
39
0.000000
0
LINE
8
_2-7_家具
6
CONTINUOUS
62
4
10
-5119.879527
20
3054.241745
30
0.000000
11
-5093.014782
21
3049.630448
31
0.000000
39
0.000000
0
LINE
8
_2-7_家具
6
CONTINUOUS
62
4
10
-5093.014782
20
3049.630448
30
0.000000
11
-4581.373831
21
3049.630448
31
0.000000
39
0.000000
0
LINE
8
_2-7_家具
6
CONTINUOUS
62
4
10
-4447.383212
20
3184.000089
30
0.000000
11
-4447.383599
21
3122.007423
31
0.000000
39
0.000000
0
LINE
8
_2-7_家具
6
CONTINUOUS
62
4
10
-4447.383599
20
3122.007423
30
0.000000
11
-4447.398003
21
3121.553428
31
0.000000
39
0.000000
0
LINE
8
_2-7_家具
6
CONTINUOUS
62
4
10
-4447.368747
20
3122.006495
30
0.000000
11
-4443.365635
21
3184.000089
31
0.000000
39
0.000000
0
LINE
8
_2-7_家具
6
CONTINUOUS
62
4
10
-4443.365635
20
3184.000089
30
0.000000
11
-4447.368747
21
3122.006495
31
0.000000
39
0.000000
0
LINE
8
_2-7_家具
6
CONTINUOUS
62
4
10
-4447.398003
20
3121.553428
30
0.000000
11
-4449.574029
21
3087.591175
31
0.000000
39
0.000000
0
LINE
8
_2-7_家具
6
CONTINUOUS
62
4
10
-4449.574029
20
3087.591175
30
0.000000
11
-4462.032159
21
3056.476533
31
0.000000
39
0.000000
0
LINE
8
_2-7_家具
6
CONTINUOUS
62
4
10
-4462.032159
20
3056.476533
30
0.000000
11
-4484.108146
21
3031.346831
31
0.000000
39
0.000000
0
LINE
8
_2-7_家具
6
CONTINUOUS
62
4
10
-4484.108146
20
3031.346831
30
0.000000
11
-4513.318840
21
3015.069196
31
0.000000
39
0.000000
0
LINE
8
_2-7_家具
6
CONTINUOUS
62
4
10
-4513.318840
20
3015.069196
30
0.000000
11
-4546.733206
21
3009.333660
31
0.000000
39
0.000000
0
LINE
8
_2-7_家具
6
CONTINUOUS
62
4
10
-4546.733206
20
3009.333660
30
0.000000
11
-5122.996989
21
3009.333660
31
0.000000
39
0.000000
0
LINE
8
_2-7_家具
6
CONTINUOUS
62
4
10
-5122.996989
20
3009.333660
30
0.000000
11
-5156.411296
21
3015.069196
31
0.000000
39
0.000000
0
LINE
8
_2-7_家具
6
CONTINUOUS
62
4
10
-5156.411296
20
3015.069196
30
0.000000
11
-5185.588327
21
3031.388808
31
0.000000
39
0.000000
0
LINE
8
_2-7_家具
6
CONTINUOUS
62
4
10
-5207.653177
20
3056.504030
30
0.000000
11
-5220.104898
21
3087.602802
31
0.000000
39
0.000000
0
LINE
8
_2-7_家具
6
CONTINUOUS
62
4
10
-5220.104898
20
3087.602802
30
0.000000
11
-5222.347757
21
3122.007332
31
0.000000
39
0.000000
0
LINE
8
_2-7_家具
6
CONTINUOUS
62
4
10
-5222.347757
20
3122.007332
30
0.000000
11
-5222.341775
21
3184.000089
31
0.000000
39
0.000000
0
LINE
8
_2-7_家具
6
CONTINUOUS
62
4
10
-4447.383599
20
3122.007423
30
0.000000
11
-4447.398003
21
3121.553428
31
0.000000
39
0.000000
0
LINE
8
_2-7_家具
6
CONTINUOUS
62
4
10
-4447.398003
20
3121.553428
30
0.000000
11
-4447.383599
21
3122.007423
31
0.000000
39
0.000000
0
LINE
8
_2-7_家具
6
CONTINUOUS
62
4
10
-4434.865288
20
3115.572837
30
0.000000
11
-4434.865288
21
3184.000089
31
0.000000
39
0.000000
0
LINE
8
_2-7_家具
6
CONTINUOUS
62
4
10
-4437.412224
20
3076.503985
30
0.000000
11
-4434.865288
21
3115.572837
31
0.000000
39
0.000000
0
LINE
8
_2-7_家具
6
CONTINUOUS
62
4
10
-4451.875420
20
3040.381576
30
0.000000
11
-4437.412224
21
3076.503985
31
0.000000
39
0.000000
0
LINE
8
_2-7_家具
6
CONTINUOUS
62
4
10
-4477.556634
20
3011.149946
30
0.000000
11
-4451.875420
21
3040.381576
31
0.000000
39
0.000000
0
LINE
8
_2-7_家具
6
CONTINUOUS
62
4
10
-4511.515800
20
2992.155559
30
0.000000
11
-4477.556634
21
3011.149946
31
0.000000
39
0.000000
0
LINE
8
_2-7_家具
6
CONTINUOUS
62
4
10
-4549.865286
20
2985.572886
30
0.000000
11
-4511.515800
21
2992.155559
31
0.000000
39
0.000000
0
LINE
8
_2-7_家具
6
CONTINUOUS
62
4
10
-5119.865275
20
2985.572886
30
0.000000
11
-4549.865286
21
2985.572886
31
0.000000
39
0.000000
0
LINE
8
_2-7_家具
6
CONTINUOUS
62
4
10
-5158.214732
20
2992.155559
30
0.000000
11
-5119.865275
21
2985.572886
31
0.000000
39
0.000000
0
LINE
8
_2-7_家具
6
CONTINUOUS
62
4
10
-5192.173899
20
3011.149946
30
0.000000
11
-5158.214732
21
2992.155559
31
0.000000
39
0.000000
0
LINE
8
_2-7_家具
6
CONTINUOUS
62
4
10
-5217.855112
20
3040.381576
30
0.000000
11
-5192.173899
21
3011.149946
31
0.000000
39
0.000000
0
LINE
8
_2-7_家具
6
CONTINUOUS
62
4
10
-5232.318337
20
3076.503985
30
0.000000
11
-5217.855112
21
3040.381576
31
0.000000
39
0.000000
0
LINE
8
_2-7_家具
6
CONTINUOUS
62
4
10
-5234.865273
20
3115.572837
30
0.000000
11
-5232.318337
21
3076.503985
31
0.000000
39
0.000000
0
LINE
8
_2-7_家具
6
CONTINUOUS
62
4
10
-5234.865280
20
3184.000089
30
0.000000
11
-5234.865273
21
3115.572837
31
0.000000
39
0.000000
0
LINE
8
_2-7_家具
6
CONTINUOUS
62
4
10
-5185.588327
20
3031.388808
30
0.000000
11
-5207.653177
21
3056.504030
31
0.000000
39
0.000000
0
LINE
8
_2-7_家具
6
CONTINUOUS
62
4
10
-3939.896976
20
2878.999969
30
0.000000
11
-4066.102783
21
2878.999969
31
0.000000
39
0.000000
0
LINE
8
_2-7_家具
6
CONTINUOUS
62
4
10
-3935.299317
20
2898.999819
30
0.000000
11
-3939.896976
21
2878.999969
31
0.000000
39
0.000000
0
LINE
8
_2-7_家具
6
CONTINUOUS
62
4
10
-3948.517702
20
2885.219025
30
0.000000
11
-3945.320507
21
2898.999819
31
0.000000
39
0.000000
0
LINE
8
_2-7_家具
6
CONTINUOUS
62
4
10
-4057.482178
20
2885.219025
30
0.000000
11
-3948.517702
21
2885.219025
31
0.000000
39
0.000000
0
LINE
8
_2-7_家具
6
CONTINUOUS
62
4
10
-4060.679374
20
2898.999819
30
0.000000
11
-4057.482178
21
2885.219025
31
0.000000
39
0.000000
0
LINE
8
_2-7_家具
6
CONTINUOUS
62
4
10
-4066.102783
20
2878.999969
30
0.000000
11
-4070.700524
21
2898.999819
31
0.000000
39
0.000000
0
LINE
8
_2-7_家具
6
CONTINUOUS
62
4
10
-4068.700673
20
2898.999819
30
0.000000
11
-4064.378662
21
2880.198151
31
0.000000
39
0.000000
0
LINE
8
_2-7_家具
6
CONTINUOUS
62
4
10
-4059.206299
20
2883.494874
30
0.000000
11
-4062.728043
21
2898.999819
31
0.000000
39
0.000000
0
LINE
8
_2-7_家具
6
CONTINUOUS
62
4
10
-4064.378662
20
2880.198151
30
0.000000
11
-3941.621097
21
2880.198151
31
0.000000
39
0.000000
0
LINE
8
_2-7_家具
6
CONTINUOUS
62
4
10
-3946.793581
20
2883.494874
30
0.000000
11
-4059.206299
21
2883.494874
31
0.000000
39
0.000000
0
LINE
8
_2-7_家具
6
CONTINUOUS
62
4
10
-3941.621097
20
2880.198151
30
0.000000
11
-3937.299165
21
2898.999819
31
0.000000
39
0.000000
0
LINE
8
_2-7_家具
6
CONTINUOUS
62
4
10
-3943.271838
20
2898.999819
30
0.000000
11
-3946.793581
21
2883.494874
31
0.000000
39
0.000000
0
LINE
8
_2-7_家具
6
CONTINUOUS
62
4
10
-4064.378662
20
2880.198151
30
0.000000
11
-4066.102783
21
2878.999969
31
0.000000
39
0.000000
0
LINE
8
_2-7_家具
6
CONTINUOUS
62
4
10
-3941.621097
20
2880.198151
30
0.000000
11
-4064.378662
21
2880.198151
31
0.000000
39
0.000000
0
LINE
8
_2-7_家具
6
CONTINUOUS
62
4
10
-3939.896976
20
2878.999969
30
0.000000
11
-3941.621097
21
2880.198151
31
0.000000
39
0.000000
0
LINE
8
_2-7_家具
6
CONTINUOUS
62
4
10
-4066.102783
20
2878.999969
30
0.000000
11
-3939.896976
21
2878.999969
31
0.000000
39
0.000000
0
LINE
8
_2-7_家具
6
CONTINUOUS
62
4
10
-3941.621097
20
2880.198151
30
0.000000
11
-3939.896976
21
2878.999969
31
0.000000
39
0.000000
0
LINE
8
_2-7_家具
6
CONTINUOUS
62
4
10
-3937.299165
20
2898.999819
30
0.000000
11
-3941.621097
21
2880.198151
31
0.000000
39
0.000000
0
LINE
8
_2-7_家具
6
CONTINUOUS
62
4
10
-3939.896976
20
2878.999969
30
0.000000
11
-3935.299317
21
2898.999819
31
0.000000
39
0.000000
0
LINE
8
_2-7_家具
6
CONTINUOUS
62
4
10
-3946.793581
20
2883.494874
30
0.000000
11
-3943.271838
21
2898.999819
31
0.000000
39
0.000000
0
LINE
8
_2-7_家具
6
CONTINUOUS
62
4
10
-3948.517702
20
2885.219025
30
0.000000
11
-3946.793581
21
2883.494874
31
0.000000
39
0.000000
0
LINE
8
_2-7_家具
6
CONTINUOUS
62
4
10
-3945.320507
20
2898.999819
30
0.000000
11
-3948.517702
21
2885.219025
31
0.000000
39
0.000000
0
LINE
8
_2-7_家具
6
CONTINUOUS
62
4
10
-3946.793581
20
2883.494874
30
0.000000
11
-3948.517702
21
2885.219025
31
0.000000
39
0.000000
0
LINE
8
_2-7_家具
6
CONTINUOUS
62
4
10
-4059.206299
20
2883.494874
30
0.000000
11
-3946.793581
21
2883.494874
31
0.000000
39
0.000000
0
LINE
8
_2-7_家具
6
CONTINUOUS
62
4
10
-4057.482178
20
2885.219025
30
0.000000
11
-4059.206299
21
2883.494874
31
0.000000
39
0.000000
0
LINE
8
_2-7_家具
6
CONTINUOUS
62
4
10
-3948.517702
20
2885.219025
30
0.000000
11
-4057.482178
21
2885.219025
31
0.000000
39
0.000000
0
LINE
8
_2-7_家具
6
CONTINUOUS
62
4
10
-4059.206299
20
2883.494874
30
0.000000
11
-4057.482178
21
2885.219025
31
0.000000
39
0.000000
0
LINE
8
_2-7_家具
6
CONTINUOUS
62
4
10
-4062.728043
20
2898.999819
30
0.000000
11
-4059.206299
21
2883.494874
31
0.000000
39
0.000000
0
LINE
8
_2-7_家具
6
CONTINUOUS
62
4
10
-4057.482178
20
2885.219025
30
0.000000
11
-4060.679374
21
2898.999819
31
0.000000
39
0.000000
0
LINE
8
_2-7_家具
6
CONTINUOUS
62
4
10
-4066.102783
20
2878.999969
30
0.000000
11
-4064.378662
21
2880.198151
31
0.000000
39
0.000000
0
LINE
8
_2-7_家具
6
CONTINUOUS
62
4
10
-4070.700524
20
2898.999819
30
0.000000
11
-4066.102783
21
2878.999969
31
0.000000
39
0.000000
0
LINE
8
_2-7_家具
6
CONTINUOUS
62
4
10
-4064.378662
20
2880.198151
30
0.000000
11
-4068.700673
21
2898.999819
31
0.000000
39
0.000000
0
LINE
8
_2-7_家具
6
CONTINUOUS
62
4
10
-3189.896990
20
2879.000001
30
0.000000
11
-3316.103774
21
2879.000001
31
0.000000
39
0.000000
0
LINE
8
_2-7_家具
6
CONTINUOUS
62
4
10
-3185.299333
20
2898.999819
30
0.000000
11
-3189.896990
21
2879.000001
31
0.000000
39
0.000000
0
LINE
8
_2-7_家具
6
CONTINUOUS
62
4
10
-3198.517594
20
2885.219025
30
0.000000
11
-3195.320469
21
2898.999819
31
0.000000
39
0.000000
0
LINE
8
_2-7_家具
6
CONTINUOUS
62
4
10
-3307.483168
20
2885.219025
30
0.000000
11
-3198.517594
21
2885.219025
31
0.000000
39
0.000000
0
LINE
8
_2-7_家具
6
CONTINUOUS
62
4
10
-3310.680364
20
2898.999819
30
0.000000
11
-3307.483168
21
2885.219025
31
0.000000
39
0.000000
0
LINE
8
_2-7_家具
6
CONTINUOUS
62
4
10
-3316.103774
20
2879.000001
30
0.000000
11
-3320.701512
21
2898.999819
31
0.000000
39
0.000000
0
LINE
8
_2-7_家具
6
CONTINUOUS
62
4
10
-3318.701664
20
2898.999819
30
0.000000
11
-3314.379653
21
2880.198151
31
0.000000
39
0.000000
0
LINE
8
_2-7_家具
6
CONTINUOUS
62
4
10
-3309.207289
20
2883.494904
30
0.000000
11
-3312.729030
21
2898.999819
31
0.000000
39
0.000000
0
LINE
8
_2-7_家具
6
CONTINUOUS
62
4
10
-3314.379653
20
2880.198151
30
0.000000
11
-3191.621111
21
2880.198151
31
0.000000
39
0.000000
0
LINE
8
_2-7_家具
6
CONTINUOUS
62
4
10
-3196.793474
20
2883.494904
30
0.000000
11
-3309.207289
21
2883.494904
31
0.000000
39
0.000000
0
LINE
8
_2-7_家具
6
CONTINUOUS
62
4
10
-3191.621111
20
2880.198151
30
0.000000
11
-3187.299179
21
2898.999819
31
0.000000
39
0.000000
0
LINE
8
_2-7_家具
6
CONTINUOUS
62
4
10
-3193.271807
20
2898.999819
30
0.000000
11
-3196.793474
21
2883.494904
31
0.000000
39
0.000000
0
LINE
8
_2-7_家具
6
CONTINUOUS
62
4
10
-3314.379653
20
2880.198151
30
0.000000
11
-3316.103774
21
2879.000001
31
0.000000
39
0.000000
0
LINE
8
_2-7_家具
6
CONTINUOUS
62
4
10
-3191.621111
20
2880.198151
30
0.000000
11
-3314.379653
21
2880.198151
31
0.000000
39
0.000000
0
LINE
8
_2-7_家具
6
CONTINUOUS
62
4
10
-3189.896990
20
2879.000001
30
0.000000
11
-3191.621111
21
2880.198151
31
0.000000
39
0.000000
0
LINE
8
_2-7_家具
6
CONTINUOUS
62
4
10
-3316.103774
20
2879.000001
30
0.000000
11
-3189.896990
21
2879.000001
31
0.000000
39
0.000000
0
LINE
8
_2-7_家具
6
CONTINUOUS
62
4
10
-3191.621111
20
2880.198151
30
0.000000
11
-3189.896990
21
2879.000001
31
0.000000
39
0.000000
0
LINE
8
_2-7_家具
6
CONTINUOUS
62
4
10
-3187.299179
20
2898.999819
30
0.000000
11
-3191.621111
21
2880.198151
31
0.000000
39
0.000000
0
LINE
8
_2-7_家具
6
CONTINUOUS
62
4
10
-3189.896990
20
2879.000001
30
0.000000
11
-3185.299333
21
2898.999819
31
0.000000
39
0.000000
0
LINE
8
_2-7_家具
6
CONTINUOUS
62
4
10
-3196.793474
20
2883.494904
30
0.000000
11
-3193.271807
21
2898.999819
31
0.000000
39
0.000000
0
LINE
8
_2-7_家具
6
CONTINUOUS
62
4
10
-3198.517594
20
2885.219025
30
0.000000
11
-3196.793474
21
2883.494904
31
0.000000
39
0.000000
0
LINE
8
_2-7_家具
6
CONTINUOUS
62
4
10
-3195.320469
20
2898.999819
30
0.000000
11
-3198.517594
21
2885.219025
31
0.000000
39
0.000000
0
LINE
8
_2-7_家具
6
CONTINUOUS
62
4
10
-3196.793474
20
2883.494904
30
0.000000
11
-3198.517594
21
2885.219025
31
0.000000
39
0.000000
0
LINE
8
_2-7_家具
6
CONTINUOUS
62
4
10
-3309.207289
20
2883.494904
30
0.000000
11
-3196.793474
21
2883.494904
31
0.000000
39
0.000000
0
LINE
8
_2-7_家具
6
CONTINUOUS
62
4
10
-3307.483168
20
2885.219025
30
0.000000
11
-3309.207289
21
2883.494904
31
0.000000
39
0.000000
0
LINE
8
_2-7_家具
6
CONTINUOUS
62
4
10
-3198.517594
20
2885.219025
30
0.000000
11
-3307.483168
21
2885.219025
31
0.000000
39
0.000000
0
LINE
8
_2-7_家具
6
CONTINUOUS
62
4
10
-3309.207289
20
2883.494904
30
0.000000
11
-3307.483168
21
2885.219025
31
0.000000
39
0.000000
0
LINE
8
_2-7_家具
6
CONTINUOUS
62
4
10
-3312.729030
20
2898.999819
30
0.000000
11
-3309.207289
21
2883.494904
31
0.000000
39
0.000000
0
LINE
8
_2-7_家具
6
CONTINUOUS
62
4
10
-3307.483168
20
2885.219025
30
0.000000
11
-3310.680364
21
2898.999819
31
0.000000
39
0.000000
0
LINE
8
_2-7_家具
6
CONTINUOUS
62
4
10
-3316.103774
20
2879.000001
30
0.000000
11
-3314.379653
21
2880.198151
31
0.000000
39
0.000000
0
LINE
8
_2-7_家具
6
CONTINUOUS
62
4
10
-3320.701512
20
2898.999819
30
0.000000
11
-3316.103774
21
2879.000001
31
0.000000
39
0.000000
0
LINE
8
_2-7_家具
6
CONTINUOUS
62
4
10
-3314.379653
20
2880.198151
30
0.000000
11
-3318.701664
21
2898.999819
31
0.000000
39
0.000000
0
LINE
8
_2-7_家具
6
CONTINUOUS
62
4
10
-4764.896105
20
2878.999969
30
0.000000
11
-4891.103989
21
2878.999969
31
0.000000
39
0.000000
0
LINE
8
_2-7_家具
6
CONTINUOUS
62
4
10
-4760.298365
20
2898.999819
30
0.000000
11
-4764.896105
21
2878.999969
31
0.000000
39
0.000000
0
LINE
8
_2-7_家具
6
CONTINUOUS
62
4
10
-4773.516711
20
2885.219025
30
0.000000
11
-4770.319533
21
2898.999819
31
0.000000
39
0.000000
0
LINE
8
_2-7_家具
6
CONTINUOUS
62
4
10
-4882.483261
20
2885.219025
30
0.000000
11
-4773.516711
21
2885.219025
31
0.000000
39
0.000000
0
LINE
8
_2-7_家具
6
CONTINUOUS
62
4
10
-4885.680475
20
2898.999819
30
0.000000
11
-4882.483261
21
2885.219025
31
0.000000
39
0.000000
0
LINE
8
_2-7_家具
6
CONTINUOUS
62
4
10
-4891.103989
20
2878.999969
30
0.000000
11
-4895.701668
21
2898.999819
31
0.000000
39
0.000000
0
LINE
8
_2-7_家具
6
CONTINUOUS
62
4
10
-4893.701819
20
2898.999819
30
0.000000
11
-4889.379868
21
2880.198151
31
0.000000
39
0.000000
0
LINE
8
_2-7_家具
6
CONTINUOUS
62
4
10
-4884.207382
20
2883.494874
30
0.000000
11
-4887.729144
21
2898.999819
31
0.000000
39
0.000000
0
LINE
8
_2-7_家具
6
CONTINUOUS
62
4
10
-4889.379868
20
2880.198151
30
0.000000
11
-4766.620226
21
2880.198151
31
0.000000
39
0.000000
0
LINE
8
_2-7_家具
6
CONTINUOUS
62
4
10
-4771.792590
20
2883.494874
30
0.000000
11
-4884.207382
21
2883.494874
31
0.000000
39
0.000000
0
LINE
8
_2-7_家具
6
CONTINUOUS
62
4
10
-4766.620226
20
2880.198151
30
0.000000
11
-4762.298216
21
2898.999819
31
0.000000
39
0.000000
0
LINE
8
_2-7_家具
6
CONTINUOUS
62
4
10
-4768.270846
20
2898.999819
30
0.000000
11
-4771.792590
21
2883.494874
31
0.000000
39
0.000000
0
LINE
8
_2-7_家具
6
CONTINUOUS
62
4
10
-4889.379868
20
2880.198151
30
0.000000
11
-4891.103989
21
2878.999969
31
0.000000
39
0.000000
0
LINE
8
_2-7_家具
6
CONTINUOUS
62
4
10
-4766.620226
20
2880.198151
30
0.000000
11
-4889.379868
21
2880.198151
31
0.000000
39
0.000000
0
LINE
8
_2-7_家具
6
CONTINUOUS
62
4
10
-4764.896105
20
2878.999969
30
0.000000
11
-4766.620226
21
2880.198151
31
0.000000
39
0.000000
0
LINE
8
_2-7_家具
6
CONTINUOUS
62
4
10
-4891.103989
20
2878.999969
30
0.000000
11
-4764.896105
21
2878.999969
31
0.000000
39
0.000000
0
LINE
8
_2-7_家具
6
CONTINUOUS
62
4
10
-4766.620226
20
2880.198151
30
0.000000
11
-4764.896105
21
2878.999969
31
0.000000
39
0.000000
0
LINE
8
_2-7_家具
6
CONTINUOUS
62
4
10
-4762.298216
20
2898.999819
30
0.000000
11
-4766.620226
21
2880.198151
31
0.000000
39
0.000000
0
LINE
8
_2-7_家具
6
CONTINUOUS
62
4
10
-4764.896105
20
2878.999969
30
0.000000
11
-4760.298365
21
2898.999819
31
0.000000
39
0.000000
0
LINE
8
_2-7_家具
6
CONTINUOUS
62
4
10
-4771.792590
20
2883.494874
30
0.000000
11
-4768.270846
21
2898.999819
31
0.000000
39
0.000000
0
LINE
8
_2-7_家具
6
CONTINUOUS
62
4
10
-4773.516711
20
2885.219025
30
0.000000
11
-4771.792590
21
2883.494874
31
0.000000
39
0.000000
0
LINE
8
_2-7_家具
6
CONTINUOUS
62
4
10
-4770.319533
20
2898.999819
30
0.000000
11
-4773.516711
21
2885.219025
31
0.000000
39
0.000000
0
LINE
8
_2-7_家具
6
CONTINUOUS
62
4
10
-4771.792590
20
2883.494874
30
0.000000
11
-4773.516711
21
2885.219025
31
0.000000
39
0.000000
0
LINE
8
_2-7_家具
6
CONTINUOUS
62
4
10
-4884.207382
20
2883.494874
30
0.000000
11
-4771.792590
21
2883.494874
31
0.000000
39
0.000000
0
LINE
8
_2-7_家具
6
CONTINUOUS
62
4
10
-4882.483261
20
2885.219025
30
0.000000
11
-4884.207382
21
2883.494874
31
0.000000
39
0.000000
0
LINE
8
_2-7_家具
6
CONTINUOUS
62
4
10
-4773.516711
20
2885.219025
30
0.000000
11
-4882.483261
21
2885.219025
31
0.000000
39
0.000000
0
LINE
8
_2-7_家具
6
CONTINUOUS
62
4
10
-4884.207382
20
2883.494874
30
0.000000
11
-4882.483261
21
2885.219025
31
0.000000
39
0.000000
0
LINE
8
_2-7_家具
6
CONTINUOUS
62
4
10
-4887.729144
20
2898.999819
30
0.000000
11
-4884.207382
21
2883.494874
31
0.000000
39
0.000000
0
LINE
8
_2-7_家具
6
CONTINUOUS
62
4
10
-4882.483261
20
2885.219025
30
0.000000
11
-4885.680475
21
2898.999819
31
0.000000
39
0.000000
0
LINE
8
_2-7_家具
6
CONTINUOUS
62
4
10
-4891.103989
20
2878.999969
30
0.000000
11
-4889.379868
21
2880.198151
31
0.000000
39
0.000000
0
LINE
8
_2-7_家具
6
CONTINUOUS
62
4
10
-4895.701668
20
2898.999819
30
0.000000
11
-4891.103989
21
2878.999969
31
0.000000
39
0.000000
0
LINE
8
_2-7_家具
6
CONTINUOUS
62
4
10
-4889.379868
20
2880.198151
30
0.000000
11
-4893.701819
21
2898.999819
31
0.000000
39
0.000000
0
LINE
8
_2-7_家具
6
CONTINUOUS
62
4
10
-6300.995853
20
455.003910
30
0.000000
11
-5550.995853
21
455.003910
31
0.000000
39
0.000000
0
LINE
8
_2-7_家具
6
CONTINUOUS
62
4
10
-5550.995853
20
455.003910
30
0.000000
11
-5550.995853
21
472.607651
31
0.000000
39
0.000000
0
LINE
8
_2-7_家具
6
CONTINUOUS
62
4
10
-6300.995853
20
472.607651
30
0.000000
11
-6300.995853
21
455.003910
31
0.000000
39
0.000000
0
LINE
8
_2-7_家具
6
CONTINUOUS
62
4
10
-6300.995853
20
585.815789
30
0.000000
11
-6300.995853
21
472.607651
31
0.000000
39
0.000000
0
LINE
8
_2-7_家具
6
CONTINUOUS
62
4
10
-5550.995853
20
472.607651
30
0.000000
11
-5550.995853
21
585.815789
31
0.000000
39
0.000000
0
LINE
8
_2-7_家具
6
CONTINUOUS
62
4
10
-6235.961430
20
692.465425
30
0.000000
11
-5614.639469
21
694.692370
31
0.000000
39
0.000000
0
LINE
8
_2-7_家具
6
CONTINUOUS
62
4
10
-6254.743167
20
691.536778
30
0.000000
11
-6272.979740
21
686.765427
31
0.000000
39
0.000000
0
LINE
8
_2-7_家具
6
CONTINUOUS
62
4
10
-6272.979740
20
686.765427
30
0.000000
11
-6286.983036
21
672.115064
31
0.000000
39
0.000000
0
LINE
8
_2-7_家具
6
CONTINUOUS
62
4
10
-5550.995853
20
585.815789
30
0.000000
11
-5552.524967
21
619.382863
31
0.000000
39
0.000000
0
LINE
8
_2-7_家具
6
CONTINUOUS
62
4
10
-5552.524967
20
619.382863
30
0.000000
11
-5555.652775
21
649.438054
31
0.000000
39
0.000000
0
LINE
8
_2-7_家具
6
CONTINUOUS
62
4
10
-5555.652775
20
649.438054
30
0.000000
11
-5564.434941
21
671.505763
31
0.000000
39
0.000000
0
LINE
8
_2-7_家具
6
CONTINUOUS
62
4
10
-5564.434941
20
671.505763
30
0.000000
11
-5578.227055
21
686.115480
31
0.000000
39
0.000000
0
LINE
8
_2-7_家具
6
CONTINUOUS
62
4
10
-6299.691472
20
619.420955
30
0.000000
11
-6300.995853
21
585.815789
31
0.000000
39
0.000000
0
LINE
8
_2-7_家具
6
CONTINUOUS
62
4
10
-6296.025883
20
653.602235
30
0.000000
11
-6299.691472
21
619.420955
31
0.000000
39
0.000000
0
LINE
8
_2-7_家具
6
CONTINUOUS
62
4
10
-5578.227055
20
686.115480
30
0.000000
11
-5595.556523
21
692.723142
31
0.000000
39
0.000000
0
LINE
8
_2-7_家具
6
CONTINUOUS
62
4
10
-5595.556523
20
692.723142
30
0.000000
11
-5614.639469
21
694.692370
31
0.000000
39
0.000000
0
LINE
8
_2-7_家具
6
CONTINUOUS
62
4
10
-5614.639469
20
694.692370
30
0.000000
11
-6235.961430
21
692.465425
31
0.000000
39
0.000000
0
LINE
8
_2-7_家具
6
CONTINUOUS
62
4
10
-6286.983036
20
672.115064
30
0.000000
11
-6296.025883
21
653.602235
31
0.000000
39
0.000000
0
LINE
8
_2-7_家具
6
CONTINUOUS
62
4
10
-6235.961430
20
692.465425
30
0.000000
11
-6254.743167
21
691.536778
31
0.000000
39
0.000000
0
LINE
8
_2-7_家具
6
CONTINUOUS
62
4
10
-5552.515698
20
619.383345
30
0.000000
11
-5552.524967
21
619.585605
31
0.000000
39
0.000000
0
LINE
8
_2-7_家具
6
CONTINUOUS
62
4
10
-5552.524967
20
619.382863
30
0.000000
11
-5550.995853
21
585.815789
31
0.000000
39
0.000000
0
LINE
8
_2-7_家具
6
CONTINUOUS
62
4
10
-5552.524967
20
619.585605
30
0.000000
11
-5552.515698
21
619.383345
31
0.000000
39
0.000000
0
LINE
8
_2-7_家具
6
CONTINUOUS
62
4
10
-6299.699376
20
619.421306
30
0.000000
11
-6299.691472
21
619.623714
31
0.000000
39
0.000000
0
LINE
8
_2-7_家具
6
CONTINUOUS
62
4
10
-6300.995853
20
585.815789
30
0.000000
11
-6299.691472
21
619.420955
31
0.000000
39
0.000000
0
LINE
8
_2-7_家具
6
CONTINUOUS
62
4
10
-6299.691472
20
619.623714
30
0.000000
11
-6299.699376
21
619.421306
31
0.000000
39
0.000000
0
LINE
8
_2-7_家具
6
CONTINUOUS
62
4
10
-5564.434941
20
671.505763
30
0.000000
11
-5555.652775
21
649.438054
31
0.000000
39
0.000000
0
LINE
8
_2-7_家具
6
CONTINUOUS
62
4
10
-6296.025883
20
653.602235
30
0.000000
11
-6286.983036
21
672.115064
31
0.000000
39
0.000000
0
LINE
8
_2-7_家具
6
CONTINUOUS
62
4
10
-5614.639469
20
694.692370
30
0.000000
11
-5595.556523
21
692.723142
31
0.000000
39
0.000000
0
LINE
8
_2-7_家具
6
CONTINUOUS
62
4
10
-6254.743167
20
691.536778
30
0.000000
11
-6235.961430
21
692.465425
31
0.000000
39
0.000000
0
LINE
8
_2-7_家具
6
CONTINUOUS
62
4
10
-5550.995853
20
585.815789
30
0.000000
11
-5550.995853
21
586.044668
31
0.000000
39
0.000000
0
LINE
8
_2-7_家具
6
CONTINUOUS
62
4
10
-5550.995853
20
602.983532
30
0.000000
11
-5550.995853
21
585.815789
31
0.000000
39
0.000000
0
LINE
8
_2-7_家具
6
CONTINUOUS
62
4
10
-6300.995853
20
586.044668
30
0.000000
11
-6300.995853
21
585.815789
31
0.000000
39
0.000000
0
LINE
8
_2-7_家具
6
CONTINUOUS
62
4
10
-6300.995853
20
585.815789
30
0.000000
11
-6300.995853
21
603.008205
31
0.000000
39
0.000000
0
LINE
8
_2-7_家具
6
CONTINUOUS
62
4
10
-5550.995853
20
586.230943
30
0.000000
11
-5550.995853
21
586.044668
31
0.000000
39
0.000000
0
LINE
8
_2-7_家具
6
CONTINUOUS
62
4
10
-6300.995853
20
586.044668
30
0.000000
11
-6300.995853
21
586.230943
31
0.000000
39
0.000000
0
LINE
8
_2-7_家具
6
CONTINUOUS
62
4
10
-6300.995853
20
472.607651
30
0.000000
11
-6300.995853
21
585.815789
31
0.000000
39
0.000000
0
LINE
8
_2-7_家具
6
CONTINUOUS
62
4
10
-6300.995853
20
586.230943
30
0.000000
11
-6300.995853
21
586.044668
31
0.000000
39
0.000000
0
LINE
8
_2-7_家具
6
CONTINUOUS
62
4
10
-5550.995853
20
585.815789
30
0.000000
11
-5550.995853
21
472.607651
31
0.000000
39
0.000000
0
LINE
8
_2-7_家具
6
CONTINUOUS
62
4
10
-5550.995853
20
586.044668
30
0.000000
11
-5550.995853
21
586.230943
31
0.000000
39
0.000000
0
LINE
8
_2-7_家具
6
CONTINUOUS
62
4
10
-5550.995853
20
472.607651
30
0.000000
11
-5550.995853
21
455.003910
31
0.000000
39
0.000000
0
LINE
8
_2-7_家具
6
CONTINUOUS
62
4
10
-6300.995853
20
455.003910
30
0.000000
11
-6300.995853
21
472.607651
31
0.000000
39
0.000000
0
LINE
8
_2-7_家具
6
CONTINUOUS
62
4
10
-5555.652775
20
649.438054
30
0.000000
11
-5552.524967
21
619.382863
31
0.000000
39
0.000000
0
LINE
8
_2-7_家具
6
CONTINUOUS
62
4
10
-5578.227055
20
686.115480
30
0.000000
11
-5564.434941
21
671.505763
31
0.000000
39
0.000000
0
LINE
8
_2-7_家具
6
CONTINUOUS
62
4
10
-5595.556523
20
692.723142
30
0.000000
11
-5578.227055
21
686.115480
31
0.000000
39
0.000000
0
LINE
8
_2-7_家具
6
CONTINUOUS
62
4
10
-6299.691472
20
619.420955
30
0.000000
11
-6296.025883
21
653.602235
31
0.000000
39
0.000000
0
LINE
8
_2-7_家具
6
CONTINUOUS
62
4
10
-6286.983036
20
672.115064
30
0.000000
11
-6272.979740
21
686.765427
31
0.000000
39
0.000000
0
LINE
8
_2-7_家具
6
CONTINUOUS
62
4
10
-6272.979740
20
686.765427
30
0.000000
11
-6254.743167
21
691.536778
31
0.000000
39
0.000000
0
LINE
8
_2-7_家具
6
CONTINUOUS
62
4
10
-5550.995853
20
455.003910
30
0.000000
11
-6300.995853
21
455.003910
31
0.000000
39
0.000000
0
LINE
8
_2-7_家具
6
CONTINUOUS
62
4
10
-6300.995853
20
585.815789
30
0.000000
11
-6300.995853
21
586.044668
31
0.000000
39
0.000000
0
LINE
8
_2-7_家具
6
CONTINUOUS
62
4
10
-6300.995853
20
603.008205
30
0.000000
11
-6300.328493
21
603.009179
31
0.000000
39
0.000000
0
LINE
8
_2-7_家具
6
CONTINUOUS
62
4
10
-6300.328493
20
603.009179
30
0.000000
11
-6300.995853
21
603.008205
31
0.000000
39
0.000000
0
LINE
8
_2-7_家具
6
CONTINUOUS
62
4
10
-6300.995853
20
603.008205
30
0.000000
11
-6300.995853
21
585.815789
31
0.000000
39
0.000000
0
LINE
8
_2-7_家具
6
CONTINUOUS
62
4
10
-5551.777849
20
602.982143
30
0.000000
11
-5550.995853
21
602.983532
31
0.000000
39
0.000000
0
LINE
8
_2-7_家具
6
CONTINUOUS
62
4
10
-5550.995853
20
586.044668
30
0.000000
11
-5550.995853
21
585.815789
31
0.000000
39
0.000000
0
LINE
8
_2-7_家具
6
CONTINUOUS
62
4
10
-5550.995853
20
585.815789
30
0.000000
11
-5550.995853
21
602.983532
31
0.000000
39
0.000000
0
LINE
8
_2-7_家具
6
CONTINUOUS
62
4
10
-5550.995853
20
602.983532
30
0.000000
11
-5551.777849
21
602.982143
31
0.000000
39
0.000000
0
LINE
8
_2-7_家具
6
CONTINUOUS
62
4
10
-5962.992557
20
696.561487
30
0.000000
11
-5962.728551
21
715.098552
31
0.000000
39
0.000000
0
LINE
8
_2-7_家具
6
CONTINUOUS
62
4
10
-5962.728551
20
715.098552
30
0.000000
11
-5955.155888
21
730.996711
31
0.000000
39
0.000000
0
LINE
8
_2-7_家具
6
CONTINUOUS
62
4
10
-5962.699054
20
715.082588
30
0.000000
11
-5962.803074
21
714.864206
31
0.000000
39
0.000000
0
LINE
8
_2-7_家具
6
CONTINUOUS
62
4
10
-5955.155888
20
730.996711
30
0.000000
11
-5942.064884
21
741.821903
31
0.000000
39
0.000000
0
LINE
8
_2-7_家具
6
CONTINUOUS
62
4
10
-5942.064884
20
741.821903
30
0.000000
11
-5925.314731
21
745.654116
31
0.000000
39
0.000000
0
LINE
8
_2-7_家具
6
CONTINUOUS
62
4
10
-5925.314731
20
745.654116
30
0.000000
11
-5908.681766
21
741.256501
31
0.000000
39
0.000000
0
LINE
8
_2-7_家具
6
CONTINUOUS
62
4
10
-5908.681766
20
741.256501
30
0.000000
11
-5895.905368
21
729.993263
31
0.000000
39
0.000000
0
LINE
8
_2-7_家具
6
CONTINUOUS
62
4
10
-5895.905368
20
729.993263
30
0.000000
11
-5888.789158
21
713.846249
31
0.000000
39
0.000000
0
LINE
8
_2-7_家具
6
CONTINUOUS
62
4
10
-5888.789158
20
713.846249
30
0.000000
11
-5889.053134
21
695.309218
31
0.000000
39
0.000000
0
LINE
8
_2-7_家具
6
CONTINUOUS
62
4
10
-5889.127690
20
695.074888
30
0.000000
11
-5889.124336
21
695.310370
31
0.000000
39
0.000000
0
LINE
8
_2-7_家具
6
CONTINUOUS
62
4
10
-5889.053134
20
695.309218
30
0.000000
11
-5889.816750
21
693.706078
31
0.000000
39
0.000000
0
LINE
8
_2-7_家具
6
CONTINUOUS
62
4
10
-5961.620712
20
693.448718
30
0.000000
11
-5962.992557
21
696.561487
31
0.000000
39
0.000000
0
LINE
8
_2-7_家具
6
CONTINUOUS
62
4
10
-5962.992557
20
696.561487
30
0.000000
11
-5963.067112
21
696.327192
31
0.000000
39
0.000000
0
LINE
8
_2-7_家具
6
CONTINUOUS
62
4
10
-5963.067112
20
696.327192
30
0.000000
11
-5961.798247
21
693.448082
31
0.000000
39
0.000000
0
LINE
8
_2-7_家具
6
CONTINUOUS
62
4
10
-5954.083684
20
698.600378
30
0.000000
11
-5953.882602
21
712.717804
31
0.000000
39
0.000000
0
LINE
8
_2-7_家具
6
CONTINUOUS
62
4
10
-5962.728551
20
715.098552
30
0.000000
11
-5962.992557
21
696.561487
31
0.000000
39
0.000000
0
LINE
8
_2-7_家具
6
CONTINUOUS
62
4
10
-5953.882602
20
712.717804
30
0.000000
11
-5948.137730
21
724.774967
31
0.000000
39
0.000000
0
LINE
8
_2-7_家具
6
CONTINUOUS
62
4
10
-5955.155888
20
730.996711
30
0.000000
11
-5962.728551
21
715.098552
31
0.000000
39
0.000000
0
LINE
8
_2-7_家具
6
CONTINUOUS
62
4
10
-5948.137730
20
724.774967
30
0.000000
11
-5938.190800
21
733.001722
31
0.000000
39
0.000000
0
LINE
8
_2-7_家具
6
CONTINUOUS
62
4
10
-5942.064884
20
741.821903
30
0.000000
11
-5955.155888
21
730.996711
31
0.000000
39
0.000000
0
LINE
8
_2-7_家具
6
CONTINUOUS
62
4
10
-5938.190800
20
733.001722
30
0.000000
11
-5925.466099
21
735.908689
31
0.000000
39
0.000000
0
LINE
8
_2-7_家具
6
CONTINUOUS
62
4
10
-5925.314731
20
745.654116
30
0.000000
11
-5942.064884
21
741.821903
31
0.000000
39
0.000000
0
LINE
8
_2-7_家具
6
CONTINUOUS
62
4
10
-5925.466099
20
735.908689
30
0.000000
11
-5912.830295
21
732.572198
31
0.000000
39
0.000000
0
LINE
8
_2-7_家具
6
CONTINUOUS
62
4
10
-5908.681766
20
741.256501
30
0.000000
11
-5925.314731
21
745.654116
31
0.000000
39
0.000000
0
LINE
8
_2-7_家具
6
CONTINUOUS
62
4
10
-5912.830295
20
732.572198
30
0.000000
11
-5903.122441
21
724.012581
31
0.000000
39
0.000000
0
LINE
8
_2-7_家具
6
CONTINUOUS
62
4
10
-5895.905368
20
729.993263
30
0.000000
11
-5908.681766
21
741.256501
31
0.000000
39
0.000000
0
LINE
8
_2-7_家具
6
CONTINUOUS
62
4
10
-5903.122441
20
724.012581
30
0.000000
11
-5897.723729
21
711.766680
31
0.000000
39
0.000000
0
LINE
8
_2-7_家具
6
CONTINUOUS
62
4
10
-5888.789158
20
713.846249
30
0.000000
11
-5895.905368
21
729.993263
31
0.000000
39
0.000000
0
LINE
8
_2-7_家具
6
CONTINUOUS
62
4
10
-5897.723729
20
711.766680
30
0.000000
11
-5897.924808
21
697.649221
31
0.000000
39
0.000000
0
LINE
8
_2-7_家具
6
CONTINUOUS
62
4
10
-5889.053134
20
695.309218
30
0.000000
11
-5888.789158
21
713.846249
31
0.000000
39
0.000000
0
LINE
8
_2-7_家具
6
CONTINUOUS
62
4
10
-5897.924808
20
697.649221
30
0.000000
11
-5899.820674
21
693.670222
31
0.000000
39
0.000000
0
LINE
8
_2-7_家具
6
CONTINUOUS
62
4
10
-5889.816750
20
693.706078
30
0.000000
11
-5889.053134
21
695.309218
31
0.000000
39
0.000000
0
LINE
8
_2-7_家具
6
CONTINUOUS
62
4
10
-5951.828016
20
693.483817
30
0.000000
11
-5954.083684
21
698.600378
31
0.000000
39
0.000000
0
LINE
8
_2-7_家具
6
CONTINUOUS
62
4
10
-5962.992557
20
696.561487
30
0.000000
11
-5961.620712
21
693.448718
31
0.000000
39
0.000000
0
LINE
8
_2-7_家具
6
CONTINUOUS
62
4
10
-5950.088475
20
699.563083
30
0.000000
11
-5949.915378
21
711.716259
31
0.000000
39
0.000000
0
LINE
8
_2-7_家具
6
CONTINUOUS
62
4
10
-5953.882602
20
712.717804
30
0.000000
11
-5954.083684
21
698.600378
31
0.000000
39
0.000000
0
LINE
8
_2-7_家具
6
CONTINUOUS
62
4
10
-5949.915378
20
711.716259
30
0.000000
11
-5944.982883
21
722.066287
31
0.000000
39
0.000000
0
LINE
8
_2-7_家具
6
CONTINUOUS
62
4
10
-5948.137730
20
724.774967
30
0.000000
11
-5953.882602
21
712.717804
31
0.000000
39
0.000000
0
LINE
8
_2-7_家具
6
CONTINUOUS
62
4
10
-5944.982883
20
722.066287
30
0.000000
11
-5938.746457
21
727.224797
31
0.000000
39
0.000000
0
LINE
8
_2-7_家具
6
CONTINUOUS
62
4
10
-5936.916412
20
728.738533
30
0.000000
11
-5936.433292
21
729.138150
31
0.000000
39
0.000000
0
LINE
8
_2-7_家具
6
CONTINUOUS
62
4
10
-5938.190800
20
733.001722
30
0.000000
11
-5948.137730
21
724.774967
31
0.000000
39
0.000000
0
LINE
8
_2-7_家具
6
CONTINUOUS
62
4
10
-5936.433292
20
729.138150
30
0.000000
11
-5932.757795
21
729.976993
31
0.000000
39
0.000000
0
LINE
8
_2-7_家具
6
CONTINUOUS
62
4
10
-5925.466099
20
735.908689
30
0.000000
11
-5938.190800
21
733.001722
31
0.000000
39
0.000000
0
LINE
8
_2-7_家具
6
CONTINUOUS
62
4
10
-5912.830295
20
732.572198
30
0.000000
11
-5925.466099
21
735.908689
31
0.000000
39
0.000000
0
LINE
8
_2-7_家具
6
CONTINUOUS
62
4
10
-5909.342605
20
724.099095
30
0.000000
11
-5906.294316
21
721.411037
31
0.000000
39
0.000000
0
LINE
8
_2-7_家具
6
CONTINUOUS
62
4
10
-5903.122441
20
724.012581
30
0.000000
11
-5912.830295
21
732.572198
31
0.000000
39
0.000000
0
LINE
8
_2-7_家具
6
CONTINUOUS
62
4
10
-5906.294316
20
721.411037
30
0.000000
11
-5905.689118
21
720.038565
31
0.000000
39
0.000000
0
LINE
8
_2-7_家具
6
CONTINUOUS
62
4
10
-5903.742923
20
715.624968
30
0.000000
11
-5901.658970
21
710.898962
31
0.000000
39
0.000000
0
LINE
8
_2-7_家具
6
CONTINUOUS
62
4
10
-5897.723729
20
711.766680
30
0.000000
11
-5903.122441
21
724.012581
31
0.000000
39
0.000000
0
LINE
8
_2-7_家具
6
CONTINUOUS
62
4
10
-5901.658970
20
710.898962
30
0.000000
11
-5901.711660
21
707.199539
31
0.000000
39
0.000000
0
LINE
8
_2-7_家具
6
CONTINUOUS
62
4
10
-5901.770816
20
703.046154
30
0.000000
11
-5901.832065
21
698.745770
31
0.000000
39
0.000000
0
LINE
8
_2-7_家具
6
CONTINUOUS
62
4
10
-5897.924808
20
697.649221
30
0.000000
11
-5897.723729
21
711.766680
31
0.000000
39
0.000000
0
LINE
8
_2-7_家具
6
CONTINUOUS
62
4
10
-5901.832065
20
698.745770
30
0.000000
11
-5903.806326
21
694.603116
31
0.000000
39
0.000000
0
LINE
8
_2-7_家具
6
CONTINUOUS
62
4
10
-5899.820674
20
693.670222
30
0.000000
11
-5897.924808
21
697.649221
31
0.000000
39
0.000000
0
LINE
8
_2-7_家具
6
CONTINUOUS
62
4
10
-5947.414778
20
693.499635
30
0.000000
11
-5950.088475
21
699.563083
31
0.000000
39
0.000000
0
LINE
8
_2-7_家具
6
CONTINUOUS
62
4
10
-5954.083684
20
698.600378
30
0.000000
11
-5951.828016
21
693.483817
31
0.000000
39
0.000000
0
LINE
8
_2-7_家具
6
CONTINUOUS
62
4
10
-5948.764194
20
705.245531
30
0.000000
11
-5945.933680
21
693.504944
31
0.000000
39
0.000000
0
LINE
8
_2-7_家具
6
CONTINUOUS
62
4
10
-5904.932296
20
693.651901
30
0.000000
11
-5902.137211
21
705.245531
31
0.000000
39
0.000000
0
LINE
8
_2-7_家具
6
CONTINUOUS
62
4
10
-5902.137211
20
705.245531
30
0.000000
11
-5905.260624
21
718.201023
31
0.000000
39
0.000000
0
LINE
8
_2-7_家具
6
CONTINUOUS
62
4
10
-5905.260624
20
718.201023
30
0.000000
11
-5913.793980
21
727.685090
31
0.000000
39
0.000000
0
LINE
8
_2-7_家具
6
CONTINUOUS
62
4
10
-5913.793980
20
727.685090
30
0.000000
11
-5925.450719
21
731.156498
31
0.000000
39
0.000000
0
LINE
8
_2-7_家具
6
CONTINUOUS
62
4
10
-5925.450719
20
731.156498
30
0.000000
11
-5937.107456
21
727.685090
31
0.000000
39
0.000000
0
LINE
8
_2-7_家具
6
CONTINUOUS
62
4
10
-5937.107456
20
727.685090
30
0.000000
11
-5945.640782
21
718.201023
31
0.000000
39
0.000000
0
LINE
8
_2-7_家具
6
CONTINUOUS
62
4
10
-5945.640782
20
718.201023
30
0.000000
11
-5948.764194
21
705.245531
31
0.000000
39
0.000000
0
LINE
8
_2-7_家具
6
CONTINUOUS
62
4
10
-5945.933680
20
693.504944
30
0.000000
11
-5948.764194
21
705.245531
31
0.000000
39
0.000000
0
LINE
8
_2-7_家具
6
CONTINUOUS
62
4
10
-5902.137211
20
705.245531
30
0.000000
11
-5904.932296
21
693.651901
31
0.000000
39
0.000000
0
LINE
8
_2-7_家具
6
CONTINUOUS
62
4
10
-5905.260624
20
718.201023
30
0.000000
11
-5902.137211
21
705.245531
31
0.000000
39
0.000000
0
LINE
8
_2-7_家具
6
CONTINUOUS
62
4
10
-5913.793980
20
727.685090
30
0.000000
11
-5905.260624
21
718.201023
31
0.000000
39
0.000000
0
LINE
8
_2-7_家具
6
CONTINUOUS
62
4
10
-5925.450719
20
731.156498
30
0.000000
11
-5913.793980
21
727.685090
31
0.000000
39
0.000000
0
LINE
8
_2-7_家具
6
CONTINUOUS
62
4
10
-5937.107456
20
727.685090
30
0.000000
11
-5925.450719
21
731.156498
31
0.000000
39
0.000000
0
LINE
8
_2-7_家具
6
CONTINUOUS
62
4
10
-5945.640782
20
718.201023
30
0.000000
11
-5937.107456
21
727.685090
31
0.000000
39
0.000000
0
LINE
8
_2-7_家具
6
CONTINUOUS
62
4
10
-5948.764194
20
705.245531
30
0.000000
11
-5945.640782
21
718.201023
31
0.000000
39
0.000000
0
LINE
8
_2-7_家具
6
CONTINUOUS
62
4
10
-5949.660862
20
705.245531
30
0.000000
11
-5946.829554
21
693.501733
31
0.000000
39
0.000000
0
LINE
8
_2-7_家具
6
CONTINUOUS
62
4
10
-5904.034877
20
693.655117
30
0.000000
11
-5901.240574
21
705.245531
31
0.000000
39
0.000000
0
LINE
8
_2-7_家具
6
CONTINUOUS
62
4
10
-5901.240574
20
705.245531
30
0.000000
11
-5904.484105
21
718.699299
31
0.000000
39
0.000000
0
LINE
8
_2-7_家具
6
CONTINUOUS
62
4
10
-5904.484105
20
718.699299
30
0.000000
11
-5913.345645
21
728.548123
31
0.000000
39
0.000000
0
LINE
8
_2-7_家具
6
CONTINUOUS
62
4
10
-5913.345645
20
728.548123
30
0.000000
11
-5925.450719
21
732.153083
31
0.000000
39
0.000000
0
LINE
8
_2-7_家具
6
CONTINUOUS
62
4
10
-5925.450719
20
732.153083
30
0.000000
11
-5925.450719
21
731.886045
31
0.000000
39
0.000000
0
LINE
8
_2-7_家具
6
CONTINUOUS
62
4
10
-5925.450719
20
731.886045
30
0.000000
11
-5925.450719
21
732.153083
31
0.000000
39
0.000000
0
LINE
8
_2-7_家具
6
CONTINUOUS
62
4
10
-5925.450719
20
732.153083
30
0.000000
11
-5937.555790
21
728.548123
31
0.000000
39
0.000000
0
LINE
8
_2-7_家具
6
CONTINUOUS
62
4
10
-5937.555790
20
728.548123
30
0.000000
11
-5946.417301
21
718.699299
31
0.000000
39
0.000000
0
LINE
8
_2-7_家具
6
CONTINUOUS
62
4
10
-5946.417301
20
718.699299
30
0.000000
11
-5949.660862
21
705.245531
31
0.000000
39
0.000000
0
LINE
8
_2-7_家具
6
CONTINUOUS
62
4
10
-5962.992557
20
696.561487
30
0.000000
11
-5963.067112
21
696.327192
31
0.000000
39
0.000000
0
LINE
8
_2-7_家具
6
CONTINUOUS
62
4
10
-5580.190617
20
995.873764
30
0.000000
11
-5577.780980
21
990.841523
31
0.000000
39
0.000000
0
LINE
8
_2-7_家具
6
CONTINUOUS
62
4
10
-5554.996219
20
954.863001
30
0.000000
11
-5580.190617
21
995.873764
31
0.000000
39
0.000000
0
LINE
8
_2-7_家具
6
CONTINUOUS
62
4
10
-5554.996219
20
951.288132
30
0.000000
11
-5554.996219
21
954.863001
31
0.000000
39
0.000000
0
LINE
8
_2-7_家具
6
CONTINUOUS
62
4
10
-5577.780980
20
990.841523
30
0.000000
11
-5577.780980
21
985.281682
31
0.000000
39
0.000000
0
LINE
8
_2-7_家具
6
CONTINUOUS
62
4
10
-5554.996219
20
954.863001
30
0.000000
11
-5554.996219
21
951.288132
31
0.000000
39
0.000000
0
LINE
8
_2-7_家具
6
CONTINUOUS
62
4
10
-5580.190617
20
995.873764
30
0.000000
11
-5647.394017
21
1016.897980
31
0.000000
39
0.000000
0
LINE
8
_2-7_家具
6
CONTINUOUS
62
4
10
-5577.780980
20
990.841523
30
0.000000
11
-5580.190617
21
995.873764
31
0.000000
39
0.000000
0
LINE
8
_2-7_家具
6
CONTINUOUS
62
4
10
-5647.394017
20
1016.897980
30
0.000000
11
-5740.847279
21
1027.011711
31
0.000000
39
0.000000
0
LINE
8
_2-7_家具
6
CONTINUOUS
62
4
10
-5577.780980
20
985.281682
30
0.000000
11
-5577.780980
21
990.841523
31
0.000000
39
0.000000
0
LINE
8
_2-7_家具
6
CONTINUOUS
62
4
10
-5740.847279
20
1027.011711
30
0.000000
11
-5826.278552
21
1031.441267
31
0.000000
39
0.000000
0
LINE
8
_2-7_家具
6
CONTINUOUS
62
4
10
-6130.000125
20
1026.861684
30
0.000000
11
-6214.078067
21
1016.497277
31
0.000000
39
0.000000
0
LINE
8
_2-7_家具
6
CONTINUOUS
62
4
10
-6274.334415
20
992.502466
30
0.000000
11
-6276.542667
21
989.322541
31
0.000000
39
0.000000
0
LINE
8
_2-7_家具
6
CONTINUOUS
62
4
10
-6214.078067
20
1016.497277
30
0.000000
11
-6274.334415
21
992.502466
31
0.000000
39
0.000000
0
LINE
8
_2-7_家具
6
CONTINUOUS
62
4
10
-6276.542667
20
989.322541
30
0.000000
11
-6276.542607
21
985.346285
31
0.000000
39
0.000000
0
LINE
8
_2-7_家具
6
CONTINUOUS
62
4
10
-6276.542667
20
989.322541
30
0.000000
11
-6274.334415
21
992.502466
31
0.000000
39
0.000000
0
LINE
8
_2-7_家具
6
CONTINUOUS
62
4
10
-6276.542607
20
985.346285
30
0.000000
11
-6276.542667
21
989.322541
31
0.000000
39
0.000000
0
LINE
8
_2-7_家具
6
CONTINUOUS
62
4
10
-6276.542667
20
989.322541
30
0.000000
11
-6287.166351
21
968.289860
31
0.000000
39
0.000000
0
LINE
8
_2-7_家具
6
CONTINUOUS
62
4
10
-6205.232915
20
927.679059
30
0.000000
11
-6138.215152
21
949.830176
31
0.000000
39
0.000000
0
LINE
8
_2-7_家具
6
CONTINUOUS
62
4
10
-6159.910222
20
955.157820
30
0.000000
11
-6040.443576
21
961.264197
31
0.000000
39
0.000000
0
LINE
8
_2-7_家具
6
CONTINUOUS
62
4
10
-6040.443576
20
961.264197
30
0.000000
11
-6159.910222
21
955.157820
31
0.000000
39
0.000000
0
LINE
8
_2-7_家具
6
CONTINUOUS
62
4
10
-6213.079532
20
732.410037
30
0.000000
11
-6231.981877
21
778.448974
31
0.000000
39
0.000000
0
LINE
8
_2-7_家具
6
CONTINUOUS
62
4
10
-6231.981877
20
778.448974
30
0.000000
11
-6239.879582
21
826.994206
31
0.000000
39
0.000000
0
LINE
8
_2-7_家具
6
CONTINUOUS
62
4
10
-5739.571735
20
1020.684132
30
0.000000
11
-5840.096440
21
1029.680983
31
0.000000
39
0.000000
0
LINE
8
_2-7_家具
6
CONTINUOUS
62
4
10
-5940.942998
20
1027.072022
30
0.000000
11
-5837.712040
21
1022.586544
31
0.000000
39
0.000000
0
LINE
8
_2-7_家具
6
CONTINUOUS
62
4
10
-5840.096440
20
1029.680983
30
0.000000
11
-5941.893681
21
1032.548685
31
0.000000
39
0.000000
0
LINE
8
_2-7_家具
6
CONTINUOUS
62
4
10
-5837.712040
20
1022.586544
30
0.000000
11
-5940.942998
21
1027.072022
31
0.000000
39
0.000000
0
LINE
8
_2-7_家具
6
CONTINUOUS
62
4
10
-6131.364628
20
1014.018241
30
0.000000
11
-6213.787236
21
999.221640
31
0.000000
39
0.000000
0
LINE
8
_2-7_家具
6
CONTINUOUS
62
4
10
-6130.501651
20
1021.167851
30
0.000000
11
-6214.833195
21
1005.527491
31
0.000000
39
0.000000
0
LINE
8
_2-7_家具
6
CONTINUOUS
62
4
10
-6213.787236
20
999.221640
30
0.000000
11
-6131.364628
21
1014.018241
31
0.000000
39
0.000000
0
LINE
8
_2-7_家具
6
CONTINUOUS
62
4
10
-6214.833195
20
1005.527491
30
0.000000
11
-6275.412236
21
980.930877
31
0.000000
39
0.000000
0
LINE
8
_2-7_家具
6
CONTINUOUS
62
4
10
-5610.710880
20
863.363705
30
0.000000
11
-5613.535802
21
801.068031
31
0.000000
39
0.000000
0
LINE
8
_2-7_家具
6
CONTINUOUS
62
4
10
-5613.535802
20
801.068031
30
0.000000
11
-5631.763004
21
735.571972
31
0.000000
39
0.000000
0
LINE
8
_2-7_家具
6
CONTINUOUS
62
4
10
-5578.808902
20
981.332164
30
0.000000
11
-5646.179417
21
1004.901746
31
0.000000
39
0.000000
0
LINE
8
_2-7_家具
6
CONTINUOUS
62
4
10
-5646.311588
20
996.593747
30
0.000000
11
-5581.892673
21
975.043491
31
0.000000
39
0.000000
0
LINE
8
_2-7_家具
6
CONTINUOUS
62
4
10
-5646.179417
20
1004.901746
30
0.000000
11
-5739.571735
21
1020.684132
31
0.000000
39
0.000000
0
LINE
8
_2-7_家具
6
CONTINUOUS
62
4
10
-5581.892673
20
975.043491
30
0.000000
11
-5646.311588
21
996.593747
31
0.000000
39
0.000000
0
LINE
8
_2-7_家具
6
CONTINUOUS
62
4
10
-5556.351902
20
884.360856
30
0.000000
11
-5556.351841
21
764.021229
31
0.000000
39
0.000000
0
LINE
8
_2-7_家具
6
CONTINUOUS
62
4
10
-5554.996219
20
760.892409
30
0.000000
11
-5554.996219
21
883.857293
31
0.000000
39
0.000000
0
LINE
8
_2-7_家具
6
CONTINUOUS
62
4
10
-5554.996219
20
643.129197
30
0.000000
11
-5554.996219
21
760.892409
31
0.000000
39
0.000000
0
LINE
8
_2-7_家具
6
CONTINUOUS
62
4
10
-5556.351841
20
764.021229
30
0.000000
11
-5556.418848
21
651.363032
31
0.000000
39
0.000000
0
LINE
8
_2-7_家具
6
CONTINUOUS
62
4
10
-5554.996219
20
951.288132
30
0.000000
11
-5554.996219
21
950.096531
31
0.000000
39
0.000000
0
LINE
8
_2-7_家具
6
CONTINUOUS
62
4
10
-5577.780980
20
985.281682
30
0.000000
11
-5577.780980
21
983.428389
31
0.000000
39
0.000000
0
LINE
8
_2-7_家具
6
CONTINUOUS
62
4
10
-5554.996219
20
950.096531
30
0.000000
11
-5554.996219
21
951.288132
31
0.000000
39
0.000000
0
LINE
8
_2-7_家具
6
CONTINUOUS
62
4
10
-5578.808902
20
981.332164
30
0.000000
11
-5556.352025
21
948.974835
31
0.000000
39
0.000000
0
LINE
8
_2-7_家具
6
CONTINUOUS
62
4
10
-5556.352025
20
948.974835
30
0.000000
11
-5554.996219
21
950.096531
31
0.000000
39
0.000000
0
LINE
8
_2-7_家具
6
CONTINUOUS
62
4
10
-5577.780980
20
983.428389
30
0.000000
11
-5578.808902
21
981.332164
31
0.000000
39
0.000000
0
LINE
8
_2-7_家具
6
CONTINUOUS
62
4
10
-5554.996219
20
883.857293
30
0.000000
11
-5554.996219
21
950.096531
31
0.000000
39
0.000000
0
LINE
8
_2-7_家具
6
CONTINUOUS
62
4
10
-5554.996219
20
950.096531
30
0.000000
11
-5556.352025
21
948.974835
31
0.000000
39
0.000000
0
LINE
8
_2-7_家具
6
CONTINUOUS
62
4
10
-5556.352025
20
948.974835
30
0.000000
11
-5556.351902
21
884.360856
31
0.000000
39
0.000000
0
LINE
8
_2-7_家具
6
CONTINUOUS
62
4
10
-5577.780980
20
983.428389
30
0.000000
11
-5577.780980
21
985.281682
31
0.000000
39
0.000000
0
LINE
8
_2-7_家具
6
CONTINUOUS
62
4
10
-5739.571735
20
1020.684132
30
0.000000
11
-5646.179417
21
1004.901746
31
0.000000
39
0.000000
0
LINE
8
_2-7_家具
6
CONTINUOUS
62
4
10
-5578.808902
20
981.332164
30
0.000000
11
-5577.780980
21
983.428389
31
0.000000
39
0.000000
0
LINE
8
_2-7_家具
6
CONTINUOUS
62
4
10
-5646.179417
20
1004.901746
30
0.000000
11
-5578.808902
21
981.332164
31
0.000000
39
0.000000
0
LINE
8
_2-7_家具
6
CONTINUOUS
62
4
10
-5740.393299
20
1024.389479
30
0.000000
11
-5840.891209
21
1032.641070
31
0.000000
39
0.000000
0
LINE
8
_2-7_家具
6
CONTINUOUS
62
4
10
-5840.891209
20
1032.641070
30
0.000000
11
-5942.210576
21
1035.003585
31
0.000000
39
0.000000
0
LINE
8
_2-7_家具
6
CONTINUOUS
62
4
10
-5941.893681
20
1032.548685
30
0.000000
11
-5840.096440
21
1029.680983
31
0.000000
39
0.000000
0
LINE
8
_2-7_家具
6
CONTINUOUS
62
4
10
-5840.891239
20
1032.417070
30
0.000000
11
-5942.210576
21
1034.931108
31
0.000000
39
0.000000
0
LINE
8
_2-7_家具
6
CONTINUOUS
62
4
10
-5840.096440
20
1029.680983
30
0.000000
11
-5739.571735
21
1020.684132
31
0.000000
39
0.000000
0
LINE
8
_2-7_家具
6
CONTINUOUS
62
4
10
-6276.542607
20
985.346285
30
0.000000
11
-6276.542667
21
984.020856
31
0.000000
39
0.000000
0
LINE
8
_2-7_家具
6
CONTINUOUS
62
4
10
-6275.412236
20
980.930877
30
0.000000
11
-6214.833195
21
1005.527491
31
0.000000
39
0.000000
0
LINE
8
_2-7_家具
6
CONTINUOUS
62
4
10
-6276.542667
20
984.020856
30
0.000000
11
-6275.412236
21
980.930877
31
0.000000
39
0.000000
0
LINE
8
_2-7_家具
6
CONTINUOUS
62
4
10
-6214.833195
20
1005.527491
30
0.000000
11
-6130.501651
21
1021.167851
31
0.000000
39
0.000000
0
LINE
8
_2-7_家具
6
CONTINUOUS
62
4
10
-6276.542667
20
984.020856
30
0.000000
11
-6276.542607
21
985.346285
31
0.000000
39
0.000000
0
LINE
8
_2-7_家具
6
CONTINUOUS
62
4
10
-6276.542607
20
985.346285
30
0.000000
11
-6296.996280
21
952.507905
31
0.000000
39
0.000000
0
LINE
8
_2-7_家具
6
CONTINUOUS
62
4
10
-6295.457707
20
878.367163
30
0.000000
11
-6295.546207
21
945.288258
31
0.000000
39
0.000000
0
LINE
8
_2-7_家具
6
CONTINUOUS
62
4
10
-6295.546207
20
945.288258
30
0.000000
11
-6296.996280
21
952.507905
31
0.000000
39
0.000000
0
LINE
8
_2-7_家具
6
CONTINUOUS
62
4
10
-6296.996280
20
952.507905
30
0.000000
11
-6296.996280
21
887.474355
31
0.000000
39
0.000000
0
LINE
8
_2-7_家具
6
CONTINUOUS
62
4
10
-6275.412236
20
980.930877
30
0.000000
11
-6276.542667
21
984.020856
31
0.000000
39
0.000000
0
LINE
8
_2-7_家具
6
CONTINUOUS
62
4
10
-6296.996280
20
952.507905
30
0.000000
11
-6295.546207
21
945.288258
31
0.000000
39
0.000000
0
LINE
8
_2-7_家具
6
CONTINUOUS
62
4
10
-6295.546207
20
945.288258
30
0.000000
11
-6275.412236
21
980.930877
31
0.000000
39
0.000000
0
LINE
8
_2-7_家具
6
CONTINUOUS
62
4
10
-6295.212231
20
655.267971
30
0.000000
11
-6295.369206
21
759.935152
31
0.000000
39
0.000000
0
LINE
8
_2-7_家具
6
CONTINUOUS
62
4
10
-6296.996280
20
763.303783
30
0.000000
11
-6296.996280
21
644.553363
31
0.000000
39
0.000000
0
LINE
8
_2-7_家具
6
CONTINUOUS
62
4
10
-6296.996280
20
887.474355
30
0.000000
11
-6296.996280
21
763.303783
31
0.000000
39
0.000000
0
LINE
8
_2-7_家具
6
CONTINUOUS
62
4
10
-6295.369206
20
759.935152
30
0.000000
11
-6295.457707
21
878.367163
31
0.000000
39
0.000000
0
LINE
8
_2-7_家具
6
CONTINUOUS
62
4
10
-5631.763004
20
735.571972
30
0.000000
11
-5655.781565
21
694.544908
31
0.000000
39
0.000000
0
LINE
8
_2-7_家具
6
CONTINUOUS
62
4
10
-5665.550419
20
935.731730
30
0.000000
11
-5625.671239
21
907.136220
31
0.000000
39
0.000000
0
LINE
8
_2-7_家具
6
CONTINUOUS
62
4
10
-5625.671239
20
907.136220
30
0.000000
11
-5610.710880
21
863.363705
31
0.000000
39
0.000000
0
LINE
8
_2-7_家具
6
CONTINUOUS
62
4
10
-5556.351902
20
884.360856
30
0.000000
11
-5556.352025
21
948.974835
31
0.000000
39
0.000000
0
LINE
8
_2-7_家具
6
CONTINUOUS
62
4
10
-5560.419407
20
945.609750
30
0.000000
11
-5560.419040
21
885.871510
31
0.000000
39
0.000000
0
LINE
8
_2-7_家具
6
CONTINUOUS
62
4
10
-5581.892673
20
975.043491
30
0.000000
11
-5560.419407
21
945.609750
31
0.000000
39
0.000000
0
LINE
8
_2-7_家具
6
CONTINUOUS
62
4
10
-5556.352025
20
948.974835
30
0.000000
11
-5578.808902
21
981.332164
31
0.000000
39
0.000000
0
LINE
8
_2-7_家具
6
CONTINUOUS
62
4
10
-5560.419407
20
945.609750
30
0.000000
11
-5581.892673
21
975.043491
31
0.000000
39
0.000000
0
LINE
8
_2-7_家具
6
CONTINUOUS
62
4
10
-5560.419040
20
885.871510
30
0.000000
11
-5560.419407
21
945.609750
31
0.000000
39
0.000000
0
LINE
8
_2-7_家具
6
CONTINUOUS
62
4
10
-5556.418848
20
651.363032
30
0.000000
11
-5556.351841
21
764.021229
31
0.000000
39
0.000000
0
LINE
8
_2-7_家具
6
CONTINUOUS
62
4
10
-5560.418644
20
773.407722
30
0.000000
11
-5560.689344
21
662.093878
31
0.000000
39
0.000000
0
LINE
8
_2-7_家具
6
CONTINUOUS
62
4
10
-5560.419040
20
885.871510
30
0.000000
11
-5560.418644
21
773.407722
31
0.000000
39
0.000000
0
LINE
8
_2-7_家具
6
CONTINUOUS
62
4
10
-5556.351841
20
764.021229
30
0.000000
11
-5556.351902
21
884.360856
31
0.000000
39
0.000000
0
LINE
8
_2-7_家具
6
CONTINUOUS
62
4
10
-5560.418644
20
773.407722
30
0.000000
11
-5560.419040
21
885.871510
31
0.000000
39
0.000000
0
LINE
8
_2-7_家具
6
CONTINUOUS
62
4
10
-5560.689344
20
662.093878
30
0.000000
11
-5560.418644
21
773.407722
31
0.000000
39
0.000000
0
LINE
8
_2-7_家具
6
CONTINUOUS
62
4
10
-6239.879582
20
826.994206
30
0.000000
11
-6235.042180
21
881.735664
31
0.000000
39
0.000000
0
LINE
8
_2-7_家具
6
CONTINUOUS
62
4
10
-6189.344893
20
692.632508
30
0.000000
11
-6213.079532
21
732.410037
31
0.000000
39
0.000000
0
LINE
8
_2-7_家具
6
CONTINUOUS
62
4
10
-6290.488041
20
749.829195
30
0.000000
11
-6289.906420
21
666.130211
31
0.000000
39
0.000000
0
LINE
8
_2-7_家具
6
CONTINUOUS
62
4
10
-6290.842045
20
851.045587
30
0.000000
11
-6290.488041
21
749.829195
31
0.000000
39
0.000000
0
LINE
8
_2-7_家具
6
CONTINUOUS
62
4
10
-6295.457707
20
878.367163
30
0.000000
11
-6295.369206
21
759.935152
31
0.000000
39
0.000000
0
LINE
8
_2-7_家具
6
CONTINUOUS
62
4
10
-6290.488041
20
749.829195
30
0.000000
11
-6290.842045
21
851.045587
31
0.000000
39
0.000000
0
LINE
8
_2-7_家具
6
CONTINUOUS
62
4
10
-6289.906420
20
666.130211
30
0.000000
11
-6290.488041
21
749.829195
31
0.000000
39
0.000000
0
LINE
8
_2-7_家具
6
CONTINUOUS
62
4
10
-6295.369206
20
759.935152
30
0.000000
11
-6295.212231
21
655.267971
31
0.000000
39
0.000000
0
LINE
8
_2-7_家具
6
CONTINUOUS
62
4
10
-6291.196171
20
923.629221
30
0.000000
11
-6290.842045
21
851.045587
31
0.000000
39
0.000000
0
LINE
8
_2-7_家具
6
CONTINUOUS
62
4
10
-6272.020999
20
971.660938
30
0.000000
11
-6291.196171
21
923.629221
31
0.000000
39
0.000000
0
LINE
8
_2-7_家具
6
CONTINUOUS
62
4
10
-6275.412236
20
980.930877
30
0.000000
11
-6295.546207
21
945.288258
31
0.000000
39
0.000000
0
LINE
8
_2-7_家具
6
CONTINUOUS
62
4
10
-6295.546207
20
945.288258
30
0.000000
11
-6291.196171
21
923.629221
31
0.000000
39
0.000000
0
LINE
8
_2-7_家具
6
CONTINUOUS
62
4
10
-6291.196171
20
923.629221
30
0.000000
11
-6272.020999
21
971.660938
31
0.000000
39
0.000000
0
LINE
8
_2-7_家具
6
CONTINUOUS
62
4
10
-6290.842045
20
851.045587
30
0.000000
11
-6291.196171
21
923.629221
31
0.000000
39
0.000000
0
LINE
8
_2-7_家具
6
CONTINUOUS
62
4
10
-6291.196171
20
923.629221
30
0.000000
11
-6295.546207
21
945.288258
31
0.000000
39
0.000000
0
LINE
8
_2-7_家具
6
CONTINUOUS
62
4
10
-6295.546207
20
945.288258
30
0.000000
11
-6295.457707
21
878.367163
31
0.000000
39
0.000000
0
LINE
8
_2-7_家具
6
CONTINUOUS
62
4
10
-6052.549774
20
1031.365708
30
0.000000
11
-6130.000125
21
1026.861684
31
0.000000
39
0.000000
0
LINE
8
_2-7_家具
6
CONTINUOUS
62
4
10
-5941.893681
20
1032.548685
30
0.000000
11
-6039.107944
21
1029.942848
31
0.000000
39
0.000000
0
LINE
8
_2-7_家具
6
CONTINUOUS
62
4
10
-6039.621159
20
1023.758789
30
0.000000
11
-5940.942998
21
1027.072022
31
0.000000
39
0.000000
0
LINE
8
_2-7_家具
6
CONTINUOUS
62
4
10
-6131.364628
20
1014.018241
30
0.000000
11
-6039.621159
21
1023.758789
31
0.000000
39
0.000000
0
LINE
8
_2-7_家具
6
CONTINUOUS
62
4
10
-6039.107944
20
1029.942848
30
0.000000
11
-6130.501651
21
1021.167851
31
0.000000
39
0.000000
0
LINE
8
_2-7_家具
6
CONTINUOUS
62
4
10
-6039.621159
20
1023.758789
30
0.000000
11
-6131.364628
21
1014.018241
31
0.000000
39
0.000000
0
LINE
8
_2-7_家具
6
CONTINUOUS
62
4
10
-5940.942998
20
1027.072022
30
0.000000
11
-6039.621159
21
1023.758789
31
0.000000
39
0.000000
0
LINE
8
_2-7_家具
6
CONTINUOUS
62
4
10
-5942.210576
20
1035.003585
30
0.000000
11
-6038.936864
21
1032.599432
31
0.000000
39
0.000000
0
LINE
8
_2-7_家具
6
CONTINUOUS
62
4
10
-6038.936864
20
1032.599432
30
0.000000
11
-6130.213932
21
1024.327086
31
0.000000
39
0.000000
0
LINE
8
_2-7_家具
6
CONTINUOUS
62
4
10
-6130.501651
20
1021.167851
30
0.000000
11
-6039.107944
21
1029.942848
31
0.000000
39
0.000000
0
LINE
8
_2-7_家具
6
CONTINUOUS
62
4
10
-5942.210576
20
1034.931108
30
0.000000
11
-6038.936864
21
1032.375497
31
0.000000
39
0.000000
0
LINE
8
_2-7_家具
6
CONTINUOUS
62
4
10
-6039.107944
20
1029.942848
30
0.000000
11
-5941.893681
21
1032.548685
31
0.000000
39
0.000000
0
LINE
8
_2-7_家具
6
CONTINUOUS
62
4
10
-5631.763004
20
735.571972
30
0.000000
11
-5613.535802
21
801.068031
31
0.000000
39
0.000000
0
LINE
8
_2-7_家具
6
CONTINUOUS
62
4
10
-5613.535802
20
801.068031
30
0.000000
11
-5610.710880
21
863.363705
31
0.000000
39
0.000000
0
LINE
8
_2-7_家具
6
CONTINUOUS
62
4
10
-5645.050235
20
890.598328
30
0.000000
11
-5634.048741
21
897.125544
31
0.000000
39
0.000000
0
LINE
8
_2-7_家具
6
CONTINUOUS
62
4
10
-5665.852878
20
884.071113
30
0.000000
11
-5645.050235
21
890.598328
31
0.000000
39
0.000000
0
LINE
8
_2-7_家具
6
CONTINUOUS
62
4
10
-5645.050235
20
890.598328
30
0.000000
11
-5665.852878
21
884.071113
31
0.000000
39
0.000000
0
LINE
8
_2-7_家具
6
CONTINUOUS
62
4
10
-5634.048741
20
897.125544
30
0.000000
11
-5645.050235
21
890.598328
31
0.000000
39
0.000000
0
LINE
8
_2-7_家具
6
CONTINUOUS
62
4
10
-6239.879582
20
826.994206
30
0.000000
11
-6231.981877
21
778.448974
31
0.000000
39
0.000000
0
LINE
8
_2-7_家具
6
CONTINUOUS
62
4
10
-6231.981877
20
778.448974
30
0.000000
11
-6213.079532
21
732.410037
31
0.000000
39
0.000000
0
LINE
8
_2-7_家具
6
CONTINUOUS
62
4
10
-5908.427846
20
693.639372
30
0.000000
11
-5907.370926
21
693.684567
31
0.000000
39
0.000000
0
LINE
8
_2-7_家具
6
CONTINUOUS
62
4
10
-5675.206633
20
694.475285
30
0.000000
11
-5672.941319
21
696.229065
31
0.000000
39
0.000000
0
LINE
8
_2-7_家具
6
CONTINUOUS
62
4
10
-5672.941319
20
696.229065
30
0.000000
11
-5675.206633
21
694.475285
31
0.000000
39
0.000000
0
LINE
8
_2-7_家具
6
CONTINUOUS
62
4
10
-5655.781565
20
694.544908
30
0.000000
11
-5631.763004
21
735.571972
31
0.000000
39
0.000000
0
LINE
8
_2-7_家具
6
CONTINUOUS
62
4
10
-6213.079532
20
732.410037
30
0.000000
11
-6189.344893
21
692.632508
31
0.000000
39
0.000000
0
LINE
8
_2-7_家具
6
CONTINUOUS
62
4
10
-6166.732407
20
692.713556
30
0.000000
11
-6175.145084
21
700.002708
31
0.000000
39
0.000000
0
LINE
8
_2-7_家具
6
CONTINUOUS
62
4
10
-6175.145084
20
700.002708
30
0.000000
11
-6166.732407
21
692.713556
31
0.000000
39
0.000000
0
LINE
8
_2-7_家具
6
CONTINUOUS
62
4
10
-5838.251133
20
963.873645
30
0.000000
11
-5940.096683
21
963.576257
31
0.000000
39
0.000000
0
LINE
8
_2-7_家具
6
CONTINUOUS
62
4
10
-5940.096683
20
963.576257
30
0.000000
11
-6040.443576
21
961.264197
31
0.000000
39
0.000000
0
LINE
8
_2-7_家具
6
CONTINUOUS
62
4
10
-6197.057805
20
914.600361
30
0.000000
11
-6200.331058
21
922.402910
31
0.000000
39
0.000000
0
LINE
8
_2-7_家具
6
CONTINUOUS
62
4
10
-6232.014409
20
879.393675
30
0.000000
11
-6228.303410
21
874.950713
31
0.000000
39
0.000000
0
LINE
8
_2-7_家具
6
CONTINUOUS
62
4
10
-6200.331058
20
922.402910
30
0.000000
11
-6205.232915
21
927.679059
31
0.000000
39
0.000000
0
LINE
8
_2-7_家具
6
CONTINUOUS
62
4
10
-6235.042180
20
881.735664
30
0.000000
11
-6239.879582
21
826.994206
31
0.000000
39
0.000000
0
LINE
8
_2-7_家具
6
CONTINUOUS
62
4
10
-6228.303410
20
874.950713
30
0.000000
11
-6232.014409
21
879.393675
31
0.000000
39
0.000000
0
LINE
8
_2-7_家具
6
CONTINUOUS
62
4
10
-6205.232915
20
927.679059
30
0.000000
11
-6200.331058
21
922.402910
31
0.000000
39
0.000000
0
LINE
8
_2-7_家具
6
CONTINUOUS
62
4
10
-6138.215152
20
949.830176
30
0.000000
11
-6205.232915
21
927.679059
31
0.000000
39
0.000000
0
LINE
8
_2-7_家具
6
CONTINUOUS
62
4
10
-6200.331058
20
922.402910
30
0.000000
11
-6197.057805
21
914.600361
31
0.000000
39
0.000000
0
LINE
8
_2-7_家具
6
CONTINUOUS
62
4
10
-5665.550419
20
935.731730
30
0.000000
11
-5737.482090
21
952.496486
31
0.000000
39
0.000000
0
LINE
8
_2-7_家具
6
CONTINUOUS
62
4
10
-5630.250218
20
901.702528
30
0.000000
11
-5634.048741
21
897.125544
31
0.000000
39
0.000000
0
LINE
8
_2-7_家具
6
CONTINUOUS
62
4
10
-5610.710880
20
863.363705
30
0.000000
11
-5625.671239
21
907.136220
31
0.000000
39
0.000000
0
LINE
8
_2-7_家具
6
CONTINUOUS
62
4
10
-5625.671239
20
907.136220
30
0.000000
11
-5630.250218
21
901.702528
31
0.000000
39
0.000000
0
LINE
8
_2-7_家具
6
CONTINUOUS
62
4
10
-5630.250218
20
901.702528
30
0.000000
11
-5625.671239
21
907.136220
31
0.000000
39
0.000000
0
LINE
8
_2-7_家具
6
CONTINUOUS
62
4
10
-5625.671239
20
907.136220
30
0.000000
11
-5665.550419
21
935.731730
31
0.000000
39
0.000000
0
LINE
8
_2-7_家具
6
CONTINUOUS
62
4
10
-5634.048741
20
897.125544
30
0.000000
11
-5630.250218
21
901.702528
31
0.000000
39
0.000000
0
LINE
8
_2-7_家具
6
CONTINUOUS
62
4
10
-5708.341725
20
955.086449
30
0.000000
11
-5838.251133
21
963.873645
31
0.000000
39
0.000000
0
LINE
8
_2-7_家具
6
CONTINUOUS
62
4
10
-5838.251133
20
963.873645
30
0.000000
11
-5708.341725
21
955.086449
31
0.000000
39
0.000000
0
LINE
8
_2-7_家具
6
CONTINUOUS
62
4
10
-5737.482090
20
952.496486
30
0.000000
11
-5665.550419
21
935.731730
31
0.000000
39
0.000000
0
LINE
8
_2-7_家具
6
CONTINUOUS
62
4
10
-6040.443576
20
961.264197
30
0.000000
11
-5940.096683
21
963.576257
31
0.000000
39
0.000000
0
LINE
8
_2-7_家具
6
CONTINUOUS
62
4
10
-5940.096683
20
963.576257
30
0.000000
11
-5838.251133
21
963.873645
31
0.000000
39
0.000000
0
LINE
8
_2-7_家具
6
CONTINUOUS
62
4
10
-6274.334415
20
992.502466
30
0.000000
11
-6214.078067
21
1016.497277
31
0.000000
39
0.000000
0
LINE
8
_2-7_家具
6
CONTINUOUS
62
4
10
-6919.188837
20
3387.399238
30
0.000000
11
-6697.865439
21
3387.399421
31
0.000000
39
0.000000
0
LINE
8
_2-7_家具
6
CONTINUOUS
62
4
10
-6683.941764
20
2356.503884
30
0.000000
11
-6957.735738
21
2356.503884
31
0.000000
39
0.000000
0
LINE
8
_2-7_家具
6
CONTINUOUS
62
4
10
-6697.865439
20
3387.399421
30
0.000000
11
-6919.188837
21
3387.399238
31
0.000000
39
0.000000
0
LINE
8
_2-7_家具
6
CONTINUOUS
62
4
10
-7033.682308
20
2518.832382
30
0.000000
11
-7009.699965
21
3249.044480
31
0.000000
39
0.000000
0
LINE
8
_2-7_家具
6
CONTINUOUS
62
4
10
-7030.946072
20
2476.336043
30
0.000000
11
-7033.682308
21
2518.832382
31
0.000000
39
0.000000
0
LINE
8
_2-7_家具
6
CONTINUOUS
62
4
10
-6957.735738
20
2356.503884
30
0.000000
11
-6683.941764
21
2356.503884
31
0.000000
39
0.000000
0
LINE
8
_2-7_家具
6
CONTINUOUS
62
4
10
-6606.783571
20
3249.044724
30
0.000000
11
-6583.570011
21
2518.831772
31
0.000000
39
0.000000
0
LINE
8
_2-7_家具
6
CONTINUOUS
62
4
10
-7033.682308
20
2518.832382
30
0.000000
11
-7030.946072
21
2476.336043
31
0.000000
39
0.000000
0
LINE
8
_2-7_家具
6
CONTINUOUS
62
4
10
-7009.699965
20
3249.044480
30
0.000000
11
-7033.682308
21
2518.832382
31
0.000000
39
0.000000
0
LINE
8
_2-7_家具
6
CONTINUOUS
62
4
10
-6583.570011
20
2518.831772
30
0.000000
11
-6606.783571
21
3249.044724
31
0.000000
39
0.000000
0
LINE
8
_2-7_家具
6
CONTINUOUS
62
4
10
-6958.203511
20
3376.368354
30
0.000000
11
-6919.188929
21
3387.399207
31
0.000000
39
0.000000
0
LINE
8
_2-7_家具
6
CONTINUOUS
62
4
10
-6991.656007
20
3353.373724
30
0.000000
11
-6958.203511
21
3376.368354
31
0.000000
39
0.000000
0
LINE
8
_2-7_家具
6
CONTINUOUS
62
4
10
-7016.002103
20
3320.767491
30
0.000000
11
-6991.656007
21
3353.373724
31
0.000000
39
0.000000
0
LINE
8
_2-7_家具
6
CONTINUOUS
62
4
10
-6919.188929
20
3387.399207
30
0.000000
11
-6958.203588
21
3376.368323
31
0.000000
39
0.000000
0
LINE
8
_2-7_家具
6
CONTINUOUS
62
4
10
-6958.203588
20
3376.368323
30
0.000000
11
-6991.656007
21
3353.373724
31
0.000000
39
0.000000
0
LINE
8
_2-7_家具
6
CONTINUOUS
62
4
10
-6991.656007
20
3353.373724
30
0.000000
11
-7016.002103
21
3320.767491
31
0.000000
39
0.000000
0
LINE
8
_2-7_家具
6
CONTINUOUS
62
4
10
-6957.735738
20
2356.503884
30
0.000000
11
-7000.890411
21
2369.295999
31
0.000000
39
0.000000
0
LINE
8
_2-7_家具
6
CONTINUOUS
62
4
10
-7000.890411
20
2369.295999
30
0.000000
11
-7033.550388
21
2397.869975
31
0.000000
39
0.000000
0
LINE
8
_2-7_家具
6
CONTINUOUS
62
4
10
-7033.550388
20
2397.869975
30
0.000000
11
-7051.767656
21
2438.073956
31
0.000000
39
0.000000
0
LINE
8
_2-7_家具
6
CONTINUOUS
62
4
10
-7000.890411
20
2369.295999
30
0.000000
11
-6957.735799
21
2356.503884
31
0.000000
39
0.000000
0
LINE
8
_2-7_家具
6
CONTINUOUS
62
4
10
-7033.550388
20
2397.869975
30
0.000000
11
-7000.890411
21
2369.295999
31
0.000000
39
0.000000
0
LINE
8
_2-7_家具
6
CONTINUOUS
62
4
10
-7051.767656
20
2438.073956
30
0.000000
11
-7033.550495
21
2397.869975
31
0.000000
39
0.000000
0
LINE
8
_2-7_家具
6
CONTINUOUS
62
4
10
-6697.865439
20
3387.399421
30
0.000000
11
-6658.850520
21
3376.368735
31
0.000000
39
0.000000
0
LINE
8
_2-7_家具
6
CONTINUOUS
62
4
10
-6658.850520
20
3376.368735
30
0.000000
11
-6625.398009
21
3353.374121
31
0.000000
39
0.000000
0
LINE
8
_2-7_家具
6
CONTINUOUS
62
4
10
-6625.398009
20
3353.374121
30
0.000000
11
-6601.051760
21
3320.767903
31
0.000000
39
0.000000
0
LINE
8
_2-7_家具
6
CONTINUOUS
62
4
10
-6658.850520
20
3376.368735
30
0.000000
11
-6697.865500
21
3387.399421
31
0.000000
39
0.000000
0
LINE
8
_2-7_家具
6
CONTINUOUS
62
4
10
-6625.398009
20
3353.374121
30
0.000000
11
-6658.850520
21
3376.368735
31
0.000000
39
0.000000
0
LINE
8
_2-7_家具
6
CONTINUOUS
62
4
10
-6601.051760
20
3320.767903
30
0.000000
11
-6625.398009
21
3353.374060
31
0.000000
39
0.000000
0
LINE
8
_2-7_家具
6
CONTINUOUS
62
4
10
-6637.621580
20
2369.295999
30
0.000000
11
-6683.941795
21
2356.503884
31
0.000000
39
0.000000
0
LINE
8
_2-7_家具
6
CONTINUOUS
62
4
10
-6599.072634
20
2397.869975
30
0.000000
11
-6637.621580
21
2369.295999
31
0.000000
39
0.000000
0
LINE
8
_2-7_家具
6
CONTINUOUS
62
4
10
-6573.248053
20
2438.073956
30
0.000000
11
-6599.072634
21
2397.869975
31
0.000000
39
0.000000
0
LINE
8
_2-7_家具
6
CONTINUOUS
62
4
10
-6683.941795
20
2356.503884
30
0.000000
11
-6637.621580
21
2369.295999
31
0.000000
39
0.000000
0
LINE
8
_2-7_家具
6
CONTINUOUS
62
4
10
-6637.621580
20
2369.295999
30
0.000000
11
-6599.072634
21
2397.869975
31
0.000000
39
0.000000
0
LINE
8
_2-7_家具
6
CONTINUOUS
62
4
10
-6599.072634
20
2397.869975
30
0.000000
11
-6573.248053
21
2438.073956
31
0.000000
39
0.000000
0
LINE
8
_2-7_家具
6
CONTINUOUS
62
4
10
-7042.645953
20
3466.818866
30
0.000000
11
-6998.186173
21
3497.379780
31
0.000000
39
0.000000
0
LINE
8
_2-7_家具
6
CONTINUOUS
62
4
10
-7075.001196
20
3423.486146
30
0.000000
11
-7042.645953
21
3466.818866
31
0.000000
39
0.000000
0
LINE
8
_2-7_家具
6
CONTINUOUS
62
4
10
-7091.599026
20
3372.305427
30
0.000000
11
-7075.001196
21
3423.486146
31
0.000000
39
0.000000
0
LINE
8
_2-7_家具
6
CONTINUOUS
62
4
10
-7150.999898
20
3538.999909
30
0.000000
11
-7150.999898
21
2199.000093
31
0.000000
39
0.000000
0
LINE
8
_2-7_家具
6
CONTINUOUS
62
4
10
-7123.775074
20
2392.615335
30
0.000000
11
-7091.599026
21
3372.305427
31
0.000000
39
0.000000
0
LINE
8
_2-7_家具
6
CONTINUOUS
62
4
10
-7119.923452
20
2332.797706
30
0.000000
11
-7123.775074
21
2392.615335
31
0.000000
39
0.000000
0
LINE
8
_2-7_家具
6
CONTINUOUS
62
4
10
-7095.498791
20
2278.894994
30
0.000000
11
-7119.923452
21
2332.797706
31
0.000000
39
0.000000
0
LINE
8
_2-7_家具
6
CONTINUOUS
62
4
10
-7051.298707
20
2240.224582
30
0.000000
11
-7095.498791
21
2278.894994
31
0.000000
39
0.000000
0
LINE
8
_2-7_家具
6
CONTINUOUS
62
4
10
-6993.968736
20
2223.231417
30
0.000000
11
-7051.298707
21
2240.224582
31
0.000000
39
0.000000
0
LINE
8
_2-7_家具
6
CONTINUOUS
62
4
10
-7150.999898
20
2199.000093
30
0.000000
11
-6471.000018
21
2199.000093
31
0.000000
39
0.000000
0
LINE
8
_2-7_家具
6
CONTINUOUS
62
4
10
-6654.897091
20
2223.231417
30
0.000000
11
-6993.968736
21
2223.231417
31
0.000000
39
0.000000
0
LINE
8
_2-7_家具
6
CONTINUOUS
62
4
10
-6594.179935
20
2239.998264
30
0.000000
11
-6654.897091
21
2223.231417
31
0.000000
39
0.000000
0
LINE
8
_2-7_家具
6
CONTINUOUS
62
4
10
-6543.158212
20
2277.817967
30
0.000000
11
-6594.179935
21
2239.998264
31
0.000000
39
0.000000
0
LINE
8
_2-7_家具
6
CONTINUOUS
62
4
10
-6509.010084
20
2330.979713
30
0.000000
11
-6543.158212
21
2277.817967
31
0.000000
39
0.000000
0
LINE
8
_2-7_家具
6
CONTINUOUS
62
4
10
-6495.795120
20
2391.643167
30
0.000000
11
-6509.010084
21
2330.979713
31
0.000000
39
0.000000
0
LINE
8
_2-7_家具
6
CONTINUOUS
62
4
10
-6471.000018
20
2199.000093
30
0.000000
11
-6471.000018
21
3538.999909
31
0.000000
39
0.000000
0
LINE
8
_2-7_家具
6
CONTINUOUS
62
4
10
-6998.186173
20
3497.379780
30
0.000000
11
-6946.653602
21
3511.950044
31
0.000000
39
0.000000
0
LINE
8
_2-7_家具
6
CONTINUOUS
62
4
10
-6471.000018
20
3538.999909
30
0.000000
11
-7150.999898
21
3538.999909
31
0.000000
39
0.000000
0
LINE
8
_2-7_家具
6
CONTINUOUS
62
4
10
-6946.653602
20
3511.950044
30
0.000000
11
-6671.918726
21
3511.950235
31
0.000000
39
0.000000
0
LINE
8
_2-7_家具
6
CONTINUOUS
62
4
10
-6671.918726
20
3511.950235
30
0.000000
11
-6620.385925
21
3497.380345
31
0.000000
39
0.000000
0
LINE
8
_2-7_家具
6
CONTINUOUS
62
4
10
-6620.385925
20
3497.380345
30
0.000000
11
-6575.925847
21
3466.819370
31
0.000000
39
0.000000
0
LINE
8
_2-7_家具
6
CONTINUOUS
62
4
10
-6575.925847
20
3466.819370
30
0.000000
11
-6543.570444
21
3423.486772
31
0.000000
39
0.000000
0
LINE
8
_2-7_家具
6
CONTINUOUS
62
4
10
-6543.570444
20
3423.486772
30
0.000000
11
-6526.970287
21
3372.299308
31
0.000000
39
0.000000
0
LINE
8
_2-7_家具
6
CONTINUOUS
62
4
10
-6526.970287
20
3372.299308
30
0.000000
11
-6495.795120
21
2391.643167
31
0.000000
39
0.000000
0
LINE
8
_2-7_家具
6
CONTINUOUS
62
4
10
-6461.000080
20
3548.999907
30
0.000000
11
-7160.999926
21
3548.999970
31
0.000000
39
0.000000
0
LINE
8
_2-7_家具
6
CONTINUOUS
62
4
10
-7160.999926
20
3548.999970
30
0.000000
11
-7150.999898
21
3538.999909
31
0.000000
39
0.000000
0
LINE
8
_2-7_家具
6
CONTINUOUS
62
4
10
-7150.999898
20
3538.999909
30
0.000000
11
-6471.000018
21
3538.999909
31
0.000000
39
0.000000
0
LINE
8
_2-7_家具
6
CONTINUOUS
62
4
10
-6471.000018
20
3538.999909
30
0.000000
11
-6461.000080
21
3548.999907
31
0.000000
39
0.000000
0
LINE
8
_2-7_家具
6
CONTINUOUS
62
4
10
-7160.999895
20
2188.999970
30
0.000000
11
-6461.000141
21
2188.999970
31
0.000000
39
0.000000
0
LINE
8
_2-7_家具
6
CONTINUOUS
62
4
10
-6461.000141
20
2188.999970
30
0.000000
11
-6471.000018
21
2199.000093
31
0.000000
39
0.000000
0
LINE
8
_2-7_家具
6
CONTINUOUS
62
4
10
-6471.000018
20
2199.000093
30
0.000000
11
-7150.999898
21
2199.000093
31
0.000000
39
0.000000
0
LINE
8
_2-7_家具
6
CONTINUOUS
62
4
10
-7150.999898
20
2199.000093
30
0.000000
11
-7160.999895
21
2188.999970
31
0.000000
39
0.000000
0
LINE
8
_2-7_家具
6
CONTINUOUS
62
4
10
-6461.000141
20
2188.999970
30
0.000000
11
-6461.000080
21
3548.999907
31
0.000000
39
0.000000
0
LINE
8
_2-7_家具
6
CONTINUOUS
62
4
10
-6461.000080
20
3548.999907
30
0.000000
11
-6471.000018
21
3538.999909
31
0.000000
39
0.000000
0
LINE
8
_2-7_家具
6
CONTINUOUS
62
4
10
-6471.000018
20
3538.999909
30
0.000000
11
-6471.000018
21
2199.000093
31
0.000000
39
0.000000
0
LINE
8
_2-7_家具
6
CONTINUOUS
62
4
10
-6471.000018
20
2199.000093
30
0.000000
11
-6461.000141
21
2188.999970
31
0.000000
39
0.000000
0
LINE
8
_2-7_家具
6
CONTINUOUS
62
4
10
-7160.999926
20
3548.999970
30
0.000000
11
-7160.999895
21
2188.999970
31
0.000000
39
0.000000
0
LINE
8
_2-7_家具
6
CONTINUOUS
62
4
10
-7160.999895
20
2188.999970
30
0.000000
11
-7150.999898
21
2199.000093
31
0.000000
39
0.000000
0
LINE
8
_2-7_家具
6
CONTINUOUS
62
4
10
-7150.999898
20
2199.000093
30
0.000000
11
-7150.999898
21
3538.999909
31
0.000000
39
0.000000
0
LINE
8
_2-7_家具
6
CONTINUOUS
62
4
10
-7150.999898
20
3538.999909
30
0.000000
11
-7160.999926
21
3548.999970
31
0.000000
39
0.000000
0
LINE
8
_2-7_家具
6
CONTINUOUS
62
4
10
-6998.186173
20
3497.379780
30
0.000000
11
-7042.645953
21
3466.818866
31
0.000000
39
0.000000
0
LINE
8
_2-7_家具
6
CONTINUOUS
62
4
10
-7042.645953
20
3466.818866
30
0.000000
11
-7075.001196
21
3423.486146
31
0.000000
39
0.000000
0
LINE
8
_2-7_家具
6
CONTINUOUS
62
4
10
-7075.001196
20
3423.486146
30
0.000000
11
-7091.599026
21
3372.305427
31
0.000000
39
0.000000
0
LINE
8
_2-7_家具
6
CONTINUOUS
62
4
10
-7091.599026
20
3372.305427
30
0.000000
11
-7123.775074
21
2392.615335
31
0.000000
39
0.000000
0
LINE
8
_2-7_家具
6
CONTINUOUS
62
4
10
-7123.775074
20
2392.615335
30
0.000000
11
-7119.923452
21
2332.797706
31
0.000000
39
0.000000
0
LINE
8
_2-7_家具
6
CONTINUOUS
62
4
10
-7119.923452
20
2332.797706
30
0.000000
11
-7095.498791
21
2278.894994
31
0.000000
39
0.000000
0
LINE
8
_2-7_家具
6
CONTINUOUS
62
4
10
-7095.498791
20
2278.894994
30
0.000000
11
-7051.298707
21
2240.224582
31
0.000000
39
0.000000
0
LINE
8
_2-7_家具
6
CONTINUOUS
62
4
10
-7051.298707
20
2240.224582
30
0.000000
11
-6993.968736
21
2223.231417
31
0.000000
39
0.000000
0
LINE
8
_2-7_家具
6
CONTINUOUS
62
4
10
-6993.968736
20
2223.231417
30
0.000000
11
-6654.897091
21
2223.231417
31
0.000000
39
0.000000
0
LINE
8
_2-7_家具
6
CONTINUOUS
62
4
10
-6654.897091
20
2223.231417
30
0.000000
11
-6594.179935
21
2239.998264
31
0.000000
39
0.000000
0
LINE
8
_2-7_家具
6
CONTINUOUS
62
4
10
-6594.179935
20
2239.998264
30
0.000000
11
-6543.158212
21
2277.817967
31
0.000000
39
0.000000
0
LINE
8
_2-7_家具
6
CONTINUOUS
62
4
10
-6543.158212
20
2277.817967
30
0.000000
11
-6509.010084
21
2330.979713
31
0.000000
39
0.000000
0
LINE
8
_2-7_家具
6
CONTINUOUS
62
4
10
-6509.010084
20
2330.979713
30
0.000000
11
-6495.795120
21
2391.643167
31
0.000000
39
0.000000
0
LINE
8
_2-7_家具
6
CONTINUOUS
62
4
10
-6946.653602
20
3511.950044
30
0.000000
11
-6998.186173
21
3497.379780
31
0.000000
39
0.000000
0
LINE
8
_2-7_家具
6
CONTINUOUS
62
4
10
-6671.918726
20
3511.950235
30
0.000000
11
-6946.653602
21
3511.950044
31
0.000000
39
0.000000
0
LINE
8
_2-7_家具
6
CONTINUOUS
62
4
10
-6620.385925
20
3497.380345
30
0.000000
11
-6671.918726
21
3511.950235
31
0.000000
39
0.000000
0
LINE
8
_2-7_家具
6
CONTINUOUS
62
4
10
-6575.925847
20
3466.819370
30
0.000000
11
-6620.385925
21
3497.380345
31
0.000000
39
0.000000
0
LINE
8
_2-7_家具
6
CONTINUOUS
62
4
10
-6543.570444
20
3423.486772
30
0.000000
11
-6575.925847
21
3466.819370
31
0.000000
39
0.000000
0
LINE
8
_2-7_家具
6
CONTINUOUS
62
4
10
-6526.970287
20
3372.299308
30
0.000000
11
-6543.570444
21
3423.486772
31
0.000000
39
0.000000
0
LINE
8
_2-7_家具
6
CONTINUOUS
62
4
10
-6495.795120
20
2391.643167
30
0.000000
11
-6526.970287
21
3372.299308
31
0.000000
39
0.000000
0
LINE
8
_2-7_家具
6
CONTINUOUS
62
4
10
-6829.470007
20
3202.357802
30
0.000000
11
-6822.596137
21
3208.125625
31
0.000000
39
0.000000
0
LINE
8
_2-7_家具
6
CONTINUOUS
62
4
10
-6833.956578
20
3194.586745
30
0.000000
11
-6829.470007
21
3202.357802
31
0.000000
39
0.000000
0
LINE
8
_2-7_家具
6
CONTINUOUS
62
4
10
-6835.514806
20
3185.749861
30
0.000000
11
-6833.956578
21
3194.586745
31
0.000000
39
0.000000
0
LINE
8
_2-7_家具
6
CONTINUOUS
62
4
10
-6833.956609
20
3176.912977
30
0.000000
11
-6835.514806
21
3185.749861
31
0.000000
39
0.000000
0
LINE
8
_2-7_家具
6
CONTINUOUS
62
4
10
-6829.470037
20
3169.142011
30
0.000000
11
-6833.956609
21
3176.912977
31
0.000000
39
0.000000
0
LINE
8
_2-7_家具
6
CONTINUOUS
62
4
10
-6822.596137
20
3163.374097
30
0.000000
11
-6829.470037
21
3169.142011
31
0.000000
39
0.000000
0
LINE
8
_2-7_家具
6
CONTINUOUS
62
4
10
-6814.164131
20
3160.305067
30
0.000000
11
-6822.596137
21
3163.374097
31
0.000000
39
0.000000
0
LINE
8
_2-7_家具
6
CONTINUOUS
62
4
10
-6805.190865
20
3160.305067
30
0.000000
11
-6814.164131
21
3160.305067
31
0.000000
39
0.000000
0
LINE
8
_2-7_家具
6
CONTINUOUS
62
4
10
-6796.758860
20
3163.374097
30
0.000000
11
-6805.190865
21
3160.305067
31
0.000000
39
0.000000
0
LINE
8
_2-7_家具
6
CONTINUOUS
62
4
10
-6789.884898
20
3169.141981
30
0.000000
11
-6796.758860
21
3163.374097
31
0.000000
39
0.000000
0
LINE
8
_2-7_家具
6
CONTINUOUS
62
4
10
-6822.596137
20
3208.125625
30
0.000000
11
-6814.164131
21
3211.194687
31
0.000000
39
0.000000
0
LINE
8
_2-7_家具
6
CONTINUOUS
62
4
10
-6814.164131
20
3211.194687
30
0.000000
11
-6805.190865
21
3211.194687
31
0.000000
39
0.000000
0
LINE
8
_2-7_家具
6
CONTINUOUS
62
4
10
-6805.190865
20
3211.194687
30
0.000000
11
-6796.758860
21
3208.125625
31
0.000000
39
0.000000
0
LINE
8
_2-7_家具
6
CONTINUOUS
62
4
10
-6796.758860
20
3208.125625
30
0.000000
11
-6789.884959
21
3202.357772
31
0.000000
39
0.000000
0
LINE
8
_2-7_家具
6
CONTINUOUS
62
4
10
-6789.884959
20
3202.357772
30
0.000000
11
-6785.398387
21
3194.586745
31
0.000000
39
0.000000
0
LINE
8
_2-7_家具
6
CONTINUOUS
62
4
10
-6785.398387
20
3194.586745
30
0.000000
11
-6783.840159
21
3185.749861
31
0.000000
39
0.000000
0
LINE
8
_2-7_家具
6
CONTINUOUS
62
4
10
-6783.840159
20
3185.749861
30
0.000000
11
-6785.398356
21
3176.913007
31
0.000000
39
0.000000
0
LINE
8
_2-7_家具
6
CONTINUOUS
62
4
10
-6785.398356
20
3176.913007
30
0.000000
11
-6789.884959
21
3169.142011
31
0.000000
39
0.000000
0
LINE
8
_2-7_家具
6
CONTINUOUS
62
4
10
-6785.398417
20
3176.913007
30
0.000000
11
-6783.840220
21
3185.749892
31
0.000000
39
0.000000
0
LINE
8
_2-7_家具
6
CONTINUOUS
62
4
10
-6786.950297
20
3185.749770
30
0.000000
11
-6788.680308
21
3177.052412
31
0.000000
39
0.000000
0
LINE
8
_2-7_家具
6
CONTINUOUS
62
4
10
-6789.884990
20
3169.141981
30
0.000000
11
-6785.398417
21
3176.913007
31
0.000000
39
0.000000
0
LINE
8
_2-7_家具
6
CONTINUOUS
62
4
10
-6793.606943
20
3169.679151
30
0.000000
11
-6800.980203
21
3164.752515
31
0.000000
39
0.000000
0
LINE
8
_2-7_家具
6
CONTINUOUS
62
4
10
-6805.190957
20
3160.305067
30
0.000000
11
-6796.758890
21
3163.374097
31
0.000000
39
0.000000
0
LINE
8
_2-7_家具
6
CONTINUOUS
62
4
10
-6796.758890
20
3163.374097
30
0.000000
11
-6789.884990
21
3169.141981
31
0.000000
39
0.000000
0
LINE
8
_2-7_家具
6
CONTINUOUS
62
4
10
-6809.677559
20
3163.022504
30
0.000000
11
-6818.374915
21
3164.752515
31
0.000000
39
0.000000
0
LINE
8
_2-7_家具
6
CONTINUOUS
62
4
10
-6822.596228
20
3163.374097
30
0.000000
11
-6814.164162
21
3160.305067
31
0.000000
39
0.000000
0
LINE
8
_2-7_家具
6
CONTINUOUS
62
4
10
-6814.164162
20
3160.305067
30
0.000000
11
-6805.190957
21
3160.305067
31
0.000000
39
0.000000
0
LINE
8
_2-7_家具
6
CONTINUOUS
62
4
10
-6825.748174
20
3169.679151
30
0.000000
11
-6830.674810
21
3177.052412
31
0.000000
39
0.000000
0
LINE
8
_2-7_家具
6
CONTINUOUS
62
4
10
-6833.956700
20
3176.913007
30
0.000000
11
-6829.470098
21
3169.141981
31
0.000000
39
0.000000
0
LINE
8
_2-7_家具
6
CONTINUOUS
62
4
10
-6829.470098
20
3169.141981
30
0.000000
11
-6822.596228
21
3163.374097
31
0.000000
39
0.000000
0
LINE
8
_2-7_家具
6
CONTINUOUS
62
4
10
-6830.674810
20
3177.052412
30
0.000000
11
-6832.404820
21
3185.749770
31
0.000000
39
0.000000
0
LINE
8
_2-7_家具
6
CONTINUOUS
62
4
10
-6835.514897
20
3185.749892
30
0.000000
11
-6833.956700
21
3176.913007
31
0.000000
39
0.000000
0
LINE
8
_2-7_家具
6
CONTINUOUS
62
4
10
-6788.680308
20
3177.052412
30
0.000000
11
-6793.606943
21
3169.679151
31
0.000000
39
0.000000
0
LINE
8
_2-7_家具
6
CONTINUOUS
62
4
10
-6800.980203
20
3164.752515
30
0.000000
11
-6809.677559
21
3163.022504
31
0.000000
39
0.000000
0
LINE
8
_2-7_家具
6
CONTINUOUS
62
4
10
-6818.374915
20
3164.752515
30
0.000000
11
-6825.748174
21
3169.679151
31
0.000000
39
0.000000
0
LINE
8
_2-7_家具
6
CONTINUOUS
62
4
10
-6788.680308
20
3194.447127
30
0.000000
11
-6786.950297
21
3185.749770
31
0.000000
39
0.000000
0
LINE
8
_2-7_家具
6
CONTINUOUS
62
4
10
-6785.398417
20
3194.586775
30
0.000000
11
-6789.884990
21
3202.357833
31
0.000000
39
0.000000
0
LINE
8
_2-7_家具
6
CONTINUOUS
62
4
10
-6793.606943
20
3201.820388
30
0.000000
11
-6788.680308
21
3194.447127
31
0.000000
39
0.000000
0
LINE
8
_2-7_家具
6
CONTINUOUS
62
4
10
-6783.840220
20
3185.749892
30
0.000000
11
-6785.398417
21
3194.586775
31
0.000000
39
0.000000
0
LINE
8
_2-7_家具
6
CONTINUOUS
62
4
10
-6833.956700
20
3194.586775
30
0.000000
11
-6835.514897
21
3185.749892
31
0.000000
39
0.000000
0
LINE
8
_2-7_家具
6
CONTINUOUS
62
4
10
-6832.404820
20
3185.749770
30
0.000000
11
-6830.674810
21
3194.447127
31
0.000000
39
0.000000
0
LINE
8
_2-7_家具
6
CONTINUOUS
62
4
10
-6829.470098
20
3202.357833
30
0.000000
11
-6833.956700
21
3194.586775
31
0.000000
39
0.000000
0
LINE
8
_2-7_家具
6
CONTINUOUS
62
4
10
-6825.748174
20
3201.820388
30
0.000000
11
-6818.374915
21
3206.747024
31
0.000000
39
0.000000
0
LINE
8
_2-7_家具
6
CONTINUOUS
62
4
10
-6814.164162
20
3211.194687
30
0.000000
11
-6822.596228
21
3208.125686
31
0.000000
39
0.000000
0
LINE
8
_2-7_家具
6
CONTINUOUS
62
4
10
-6809.677559
20
3208.477035
30
0.000000
11
-6800.980203
21
3206.747024
31
0.000000
39
0.000000
0
LINE
8
_2-7_家具
6
CONTINUOUS
62
4
10
-6796.758890
20
3208.125686
30
0.000000
11
-6805.190957
21
3211.194687
31
0.000000
39
0.000000
0
LINE
8
_2-7_家具
6
CONTINUOUS
62
4
10
-6789.884990
20
3202.357833
30
0.000000
11
-6796.758890
21
3208.125686
31
0.000000
39
0.000000
0
LINE
8
_2-7_家具
6
CONTINUOUS
62
4
10
-6800.980203
20
3206.747024
30
0.000000
11
-6793.606943
21
3201.820388
31
0.000000
39
0.000000
0
LINE
8
_2-7_家具
6
CONTINUOUS
62
4
10
-6805.190957
20
3211.194687
30
0.000000
11
-6814.164162
21
3211.194687
31
0.000000
39
0.000000
0
LINE
8
_2-7_家具
6
CONTINUOUS
62
4
10
-6818.374915
20
3206.747024
30
0.000000
11
-6809.677559
21
3208.477035
31
0.000000
39
0.000000
0
LINE
8
_2-7_家具
6
CONTINUOUS
62
4
10
-6822.596228
20
3208.125686
30
0.000000
11
-6829.470098
21
3202.357833
31
0.000000
39
0.000000
0
LINE
8
_2-7_家具
6
CONTINUOUS
62
4
10
-6830.674810
20
3194.447127
30
0.000000
11
-6825.748174
21
3201.820388
31
0.000000
39
0.000000
0
LINE
8
_2-7_家具
6
CONTINUOUS
62
4
10
-6800.980203
20
3206.747024
30
0.000000
11
-6809.677559
21
3208.477035
31
0.000000
39
0.000000
0
LINE
8
_2-7_家具
6
CONTINUOUS
62
4
10
-6793.606943
20
3201.820388
30
0.000000
11
-6800.980203
21
3206.747024
31
0.000000
39
0.000000
0
LINE
8
_2-7_家具
6
CONTINUOUS
62
4
10
-6788.680308
20
3194.447127
30
0.000000
11
-6793.606943
21
3201.820388
31
0.000000
39
0.000000
0
LINE
8
_2-7_家具
6
CONTINUOUS
62
4
10
-6786.950297
20
3185.749770
30
0.000000
11
-6788.680308
21
3194.447127
31
0.000000
39
0.000000
0
LINE
8
_2-7_家具
6
CONTINUOUS
62
4
10
-6788.680308
20
3177.052412
30
0.000000
11
-6786.950297
21
3185.749770
31
0.000000
39
0.000000
0
LINE
8
_2-7_家具
6
CONTINUOUS
62
4
10
-6793.606943
20
3169.679151
30
0.000000
11
-6788.680308
21
3177.052412
31
0.000000
39
0.000000
0
LINE
8
_2-7_家具
6
CONTINUOUS
62
4
10
-6800.980203
20
3164.752515
30
0.000000
11
-6793.606943
21
3169.679151
31
0.000000
39
0.000000
0
LINE
8
_2-7_家具
6
CONTINUOUS
62
4
10
-6809.677559
20
3163.022504
30
0.000000
11
-6800.980203
21
3164.752515
31
0.000000
39
0.000000
0
LINE
8
_2-7_家具
6
CONTINUOUS
62
4
10
-6818.374915
20
3164.752515
30
0.000000
11
-6809.677559
21
3163.022504
31
0.000000
39
0.000000
0
LINE
8
_2-7_家具
6
CONTINUOUS
62
4
10
-6825.748174
20
3169.679151
30
0.000000
11
-6818.374915
21
3164.752515
31
0.000000
39
0.000000
0
LINE
8
_2-7_家具
6
CONTINUOUS
62
4
10
-6830.674810
20
3177.052412
30
0.000000
11
-6825.748174
21
3169.679151
31
0.000000
39
0.000000
0
LINE
8
_2-7_家具
6
CONTINUOUS
62
4
10
-6832.404820
20
3185.749770
30
0.000000
11
-6830.674810
21
3177.052412
31
0.000000
39
0.000000
0
LINE
8
_2-7_家具
6
CONTINUOUS
62
4
10
-6830.674810
20
3194.447127
30
0.000000
11
-6832.404820
21
3185.749770
31
0.000000
39
0.000000
0
LINE
8
_2-7_家具
6
CONTINUOUS
62
4
10
-6825.748174
20
3201.820388
30
0.000000
11
-6830.674810
21
3194.447127
31
0.000000
39
0.000000
0
LINE
8
_2-7_家具
6
CONTINUOUS
62
4
10
-6809.677559
20
3208.477035
30
0.000000
11
-6818.374915
21
3206.747024
31
0.000000
39
0.000000
0
LINE
8
_2-7_家具
6
CONTINUOUS
62
4
10
-6818.374915
20
3206.747024
30
0.000000
11
-6825.748174
21
3201.820388
31
0.000000
39
0.000000
0
LINE
8
_2-6_設備
6
CONTINUOUS
62
7
10
-2639.000000
20
2985.000000
30
0.000000
11
-2439.000000
21
2985.000000
31
0.000000
39
0.000000
0
LINE
8
_2-6_設備
6
CONTINUOUS
62
7
10
-2439.000000
20
3385.000000
30
0.000000
11
-2639.000000
21
3385.000000
31
0.000000
39
0.000000
0
LINE
8
_2-6_設備
6
CONTINUOUS
62
7
10
-2639.000000
20
3385.000000
30
0.000000
11
-2639.000000
21
2985.000000
31
0.000000
39
0.000000
0
LINE
8
_2-6_設備
6
CONTINUOUS
62
7
10
-2039.000000
20
3185.000000
30
0.000000
11
-2052.629669
21
3236.763809
31
0.000000
39
0.000000
0
LINE
8
_2-6_設備
6
CONTINUOUS
62
7
10
-2052.629669
20
3236.763809
30
0.000000
11
-2092.589838
21
3285.000000
31
0.000000
39
0.000000
0
LINE
8
_2-6_設備
6
CONTINUOUS
62
7
10
-2092.589838
20
3285.000000
30
0.000000
11
-2156.157288
21
3326.421356
31
0.000000
39
0.000000
0
LINE
8
_2-6_設備
6
CONTINUOUS
62
7
10
-2156.157288
20
3326.421356
30
0.000000
11
-2239.000000
21
3358.205081
31
0.000000
39
0.000000
0
LINE
8
_2-6_設備
6
CONTINUOUS
62
7
10
-2239.000000
20
3358.205081
30
0.000000
11
-2335.472382
21
3378.185165
31
0.000000
39
0.000000
0
LINE
8
_2-6_設備
6
CONTINUOUS
62
7
10
-2335.472382
20
3378.185165
30
0.000000
11
-2439.000000
21
3385.000000
31
0.000000
39
0.000000
0
LINE
8
_2-6_設備
6
CONTINUOUS
62
7
10
-2439.000000
20
3385.000000
30
0.000000
11
-2439.000000
21
2985.000000
31
0.000000
39
0.000000
0
LINE
8
_2-6_設備
6
CONTINUOUS
62
7
10
-2439.000000
20
2985.000000
30
0.000000
11
-2335.472382
21
2991.814835
31
0.000000
39
0.000000
0
LINE
8
_2-6_設備
6
CONTINUOUS
62
7
10
-2335.472382
20
2991.814835
30
0.000000
11
-2239.000000
21
3011.794919
31
0.000000
39
0.000000
0
LINE
8
_2-6_設備
6
CONTINUOUS
62
7
10
-2239.000000
20
3011.794919
30
0.000000
11
-2156.157288
21
3043.578644
31
0.000000
39
0.000000
0
LINE
8
_2-6_設備
6
CONTINUOUS
62
7
10
-2156.157288
20
3043.578644
30
0.000000
11
-2092.589838
21
3085.000000
31
0.000000
39
0.000000
0
LINE
8
_2-6_設備
6
CONTINUOUS
62
7
10
-2092.589838
20
3085.000000
30
0.000000
11
-2052.629669
21
3133.236191
31
0.000000
39
0.000000
0
LINE
8
_2-6_設備
6
CONTINUOUS
62
7
10
-2052.629669
20
3133.236191
30
0.000000
11
-2039.000000
21
3185.000000
31
0.000000
39
0.000000
0
LINE
8
_2-8_雑線
6
CONTINUOUS
62
7
10
7462.000000
20
5915.000000
30
0.000000
11
7462.000000
21
-6825.000000
31
0.000000
39
0.000000
0
LINE
8
_2-8_雑線
6
CONTINUOUS
62
7
10
3640.000000
20
5915.000000
30
0.000000
11
3640.000000
21
-6825.000000
31
0.000000
39
0.000000
0
LINE
8
_2-8_雑線
6
DASHED1
62
4
10
-870.045371
20
1727.159841
30
0.000000
11
-870.045371
21
179.912294
31
0.000000
39
0.000000
0
LINE
8
_2-8_雑線
6
DASHED1
62
4
10
-870.045371
20
179.912294
30
0.000000
11
-455.000000
21
179.912294
31
0.000000
39
0.000000
0
LINE
8
_2-8_雑線
6
DASHED1
62
4
10
-455.000000
20
179.912294
30
0.000000
11
-455.000000
21
1727.159841
31
0.000000
39
0.000000
0
LINE
8
_2-8_雑線
6
DASHED1
62
4
10
-455.000000
20
1727.159841
30
0.000000
11
-870.045371
21
1727.159841
31
0.000000
39
0.000000
0
LINE
8
_2-8_雑線
6
DASHED1
62
4
10
-869.759149
20
-103.941915
30
0.000000
11
-869.759149
21
-1649.976402
31
0.000000
39
0.000000
0
LINE
8
_2-8_雑線
6
DASHED1
62
4
10
-869.759149
20
-1649.976402
30
0.000000
11
-455.000000
21
-1649.976402
31
0.000000
39
0.000000
0
LINE
8
_2-8_雑線
6
DASHED1
62
4
10
-455.000000
20
-1649.976402
30
0.000000
11
-455.000000
21
-103.941915
31
0.000000
39
0.000000
0
LINE
8
_2-8_雑線
6
DASHED1
62
4
10
-455.000000
20
-103.941915
30
0.000000
11
-869.759149
21
-103.941915
31
0.000000
39
0.000000
0
LINE
8
_2-8_雑線
6
CONTINUOUS
62
7
10
3640.000000
20
4368.000000
30
0.000000
11
-10920.000000
21
4368.000000
31
0.000000
39
0.000000
0
LINE
8
_2-8_雑線
6
CONTINUOUS
62
7
10
-10920.000000
20
4368.000000
30
0.000000
11
-10920.000000
21
-5096.000000
31
0.000000
39
0.000000
0
LINE
8
_2-8_雑線
6
CONTINUOUS
62
7
10
-10920.000000
20
-5096.000000
30
0.000000
11
3640.000000
21
-5096.000000
31
0.000000
39
0.000000
0
LINE
8
_2-8_雑線
6
CONTINUOUS
62
7
10
3640.000000
20
-5096.000000
30
0.000000
11
3640.000000
21
4368.000000
31
0.000000
39
0.000000
0
LINE
8
_2-8_雑線
6
CONTINUOUS
62
7
10
-870.045371
20
1729.000000
30
0.000000
11
-870.045371
21
182.000000
31
0.000000
39
0.000000
0
LINE
8
_2-8_雑線
6
CONTINUOUS
62
7
10
-870.045371
20
182.000000
30
0.000000
11
-455.000000
21
182.000000
31
0.000000
39
0.000000
0
LINE
8
_2-8_雑線
6
CONTINUOUS
62
7
10
-455.000000
20
182.000000
30
0.000000
11
-455.000000
21
1729.000000
31
0.000000
39
0.000000
0
LINE
8
_2-8_雑線
6
CONTINUOUS
62
7
10
-455.000000
20
1729.000000
30
0.000000
11
-870.045371
21
1729.000000
31
0.000000
39
0.000000
0
LINE
8
_2-8_雑線
6
CONTINUOUS
62
7
10
-873.163486
20
-104.837631
30
0.000000
11
-873.163486
21
-1651.837631
31
0.000000
39
0.000000
0
LINE
8
_2-8_雑線
6
CONTINUOUS
62
7
10
-873.163486
20
-1651.837631
30
0.000000
11
-458.118115
21
-1651.837631
31
0.000000
39
0.000000
0
LINE
8
_2-8_雑線
6
CONTINUOUS
62
7
10
-458.118115
20
-1651.837631
30
0.000000
11
-458.118115
21
-104.837631
31
0.000000
39
0.000000
0
LINE
8
_2-8_雑線
6
CONTINUOUS
62
7
10
-458.118115
20
-104.837631
30
0.000000
11
-873.163486
21
-104.837631
31
0.000000
39
0.000000
0
LINE
8
_2-1_壁芯
6
CENTER1
62
4
10
-7280.000000
20
3640.000000
30
0.000000
11
-7280.000000
21
-3640.000000
31
0.000000
39
0.000000
0
LINE
8
_2-1_壁芯
6
CENTER1
62
4
10
-7280.000000
20
1820.000000
30
0.000000
11
-5460.000000
21
1820.000000
31
0.000000
39
0.000000
0
LINE
8
_2-1_壁芯
6
CENTER1
62
4
10
-5460.000000
20
0.000000
30
0.000000
11
-5460.000000
21
3640.000000
31
0.000000
39
0.000000
0
LINE
8
_2-1_壁芯
6
CENTER1
62
4
10
2730.000000
20
3640.000000
30
0.000000
11
-7280.000000
21
3640.000000
31
0.000000
39
0.000000
0
LINE
8
_2-1_壁芯
6
CENTER1
62
4
10
-7280.000000
20
910.000000
30
0.000000
11
-6370.000000
21
910.000000
31
0.000000
39
0.000000
0
LINE
8
_2-1_壁芯
6
CENTER1
62
4
10
-7280.000000
20
0.000000
30
0.000000
11
2730.000000
21
0.000000
31
0.000000
39
0.000000
0
LINE
8
_2-1_壁芯
6
CENTER1
62
4
10
-7280.000000
20
-3640.000000
30
0.000000
11
2730.000000
21
-3640.000000
31
0.000000
39
0.000000
0
LINE
8
_2-1_壁芯
6
CENTER1
62
4
10
-4550.000000
20
-3640.000000
30
0.000000
11
-4550.000000
21
0.000000
31
0.000000
39
0.000000
0
LINE
8
_2-1_壁芯
6
CENTER1
62
4
10
-910.000000
20
-3640.000000
30
0.000000
11
-910.000000
21
3640.000000
31
0.000000
39
0.000000
0
LINE
8
_2-1_壁芯
6
CENTER1
62
4
10
-2730.000000
20
0.000000
30
0.000000
11
-2730.000000
21
3640.000000
31
0.000000
39
0.000000
0
LINE
8
_2-1_壁芯
6
CENTER1
62
4
10
-2730.000000
20
2730.000000
30
0.000000
11
0.000000
21
2730.000000
31
0.000000
39
0.000000
0
LINE
8
_2-1_壁芯
6
CENTER1
62
4
10
-1820.000000
20
910.000000
30
0.000000
11
-1820.000000
21
2730.000000
31
0.000000
39
0.000000
0
LINE
8
_2-1_壁芯
6
CENTER1
62
4
10
0.000000
20
2730.000000
30
0.000000
11
0.000000
21
3640.000000
31
0.000000
39
0.000000
0
LINE
8
_2-1_壁芯
6
CENTER1
62
4
10
2730.000000
20
-3640.000000
30
0.000000
11
2730.000000
21
3640.000000
31
0.000000
39
0.000000
0
LINE
8
_2-1_壁芯
6
CENTER1
62
4
10
-6370.000000
20
0.000000
30
0.000000
11
-6370.000000
21
910.000000
31
0.000000
39
0.000000
0
LINE
8
_2-1_壁芯
6
CENTER1
62
4
10
-6370.000000
20
364.000000
30
0.000000
11
-5460.000000
21
364.000000
31
0.000000
39
0.000000
0
LINE
8
_2-1_壁芯
6
CENTER1
62
4
10
-910.000000
20
-910.000000
30
0.000000
11
2730.000000
21
-910.000000
31
0.000000
39
0.000000
0
CIRCLE
8
_2-4_雑仕上
6
CONTINUOUS
62
4
10
-2275.000000
20
910.000000
30
0.000000
39
0.000000
40
30.000000
0
CIRCLE
8
_2-B_記号
6
CONTINUOUS
62
7
10
-6370.000000
20
3640.000000
30
0.000000
39
0.000000
40
180.000000
0
CIRCLE
8
_2-B_記号
6
CONTINUOUS
62
7
10
-6370.000000
20
-3640.000000
30
0.000000
39
0.000000
40
180.000000
0
CIRCLE
8
_2-B_記号
6
CONTINUOUS
62
7
10
-6370.000000
20
3640.000000
30
0.000000
39
0.000000
40
180.000000
0
CIRCLE
8
_2-B_記号
6
CONTINUOUS
62
7
10
-6370.000000
20
-3640.000000
30
0.000000
39
0.000000
40
180.000000
0
CIRCLE
8
_2-8_雑線
6
CONTINUOUS
62
4
10
3640.000000
20
4368.000000
30
0.000000
39
0.000000
40
100.000000
0
CIRCLE
8
_2-8_雑線
6
CONTINUOUS
62
4
10
-10920.000000
20
4368.000000
30
0.000000
39
0.000000
40
100.000000
0
CIRCLE
8
_2-8_雑線
6
CONTINUOUS
62
4
10
-10920.000000
20
-5005.000000
30
0.000000
39
0.000000
40
100.000000
0
CIRCLE
8
_2-8_雑線
6
CONTINUOUS
62
4
10
3640.000000
20
-5096.000000
30
0.000000
39
0.000000
40
100.000000
0
ARC
8
_2-5_建具
6
CONTINUOUS
62
7
10
-5562.500000
20
-28.750000
30
0.000000
39
0.000000
40
705.000000
50
180.000000
51
270.000000
0
ARC
8
_2-5_建具
6
CONTINUOUS
62
7
10
-5357.500000
20
41.250000
30
0.000000
39
0.000000
40
717.500000
50
0.000000
51
90.000000
0
ARC
8
_2-5_建具
6
CONTINUOUS
62
7
10
-7385.000000
20
995.000000
30
0.000000
39
0.000000
40
720.000000
50
90.000000
51
180.000000
0
ARC
8
_2-5_建具
6
CONTINUOUS
62
7
10
35.000000
20
3537.500000
30
0.000000
39
0.000000
40
705.000000
50
270.000000
51
0.000000
0
ARC
8
_2-5_建具
6
CONTINUOUS
62
7
10
2835.000000
20
-85.000000
30
0.000000
39
0.000000
40
740.000000
50
270.000000
51
0.000000
0
ARC
8
_2-5_建具
6
CONTINUOUS
62
7
10
-2695.000000
20
820.000000
30
0.000000
39
0.000000
40
717.500000
50
270.000000
51
0.000000
0
ARC
8
_2-5_建具
6
CONTINUOUS
62
7
10
-1012.500000
20
2695.000000
30
0.000000
39
0.000000
40
705.000000
50
180.000000
51
270.000000
0
ARC
8
_2-5_建具
6
CONTINUOUS
62
7
10
-1785.000000
20
1910.000000
30
0.000000
39
0.000000
40
358.750000
50
0.000000
51
90.000000
0
ARC
8
_2-5_建具
6
CONTINUOUS
62
7
10
-1785.000000
20
2627.500000
30
0.000000
39
0.000000
40
358.750000
50
270.000000
51
0.000000
0
POINT
8
_2-D_寸法
62
7
10
4095.000000
20
-910.000000
30
0.000000
39
0.000000
0
POINT
8
_2-D_寸法
62
7
10
4095.000000
20
-3640.000000
30
0.000000
39
0.000000
0
POINT
8
_2-D_寸法
62
7
10
4095.000000
20
0.000000
30
0.000000
39
0.000000
0
POINT
8
_2-D_寸法
62
7
10
4095.000000
20
-910.000000
30
0.000000
39
0.000000
0
POINT
8
_2-D_寸法
62
7
10
4095.000000
20
3640.000000
30
0.000000
39
0.000000
0
POINT
8
_2-D_寸法
62
7
10
4095.000000
20
0.000000
30
0.000000
39
0.000000
0
POINT
8
_2-D_寸法
62
7
10
4550.000000
20
3640.000000
30
0.000000
39
0.000000
0
POINT
8
_2-D_寸法
62
7
10
4550.000000
20
-3640.000000
30
0.000000
39
0.000000
0
POINT
8
_2-D_寸法
62
7
10
-5460.000000
20
5005.000000
30
0.000000
39
0.000000
0
POINT
8
_2-D_寸法
62
7
10
-7280.000000
20
5005.000000
30
0.000000
39
0.000000
0
POINT
8
_2-D_寸法
62
7
10
-2730.000000
20
5005.000000
30
0.000000
39
0.000000
0
POINT
8
_2-D_寸法
62
7
10
-5460.000000
20
5005.000000
30
0.000000
39
0.000000
0
POINT
8
_2-D_寸法
62
7
10
-1820.000000
20
5005.000000
30
0.000000
39
0.000000
0
POINT
8
_2-D_寸法
62
7
10
-2730.000000
20
5005.000000
30
0.000000
39
0.000000
0
POINT
8
_2-D_寸法
62
7
10
-910.000000
20
5005.000000
30
0.000000
39
0.000000
0
POINT
8
_2-D_寸法
62
7
10
-1820.000000
20
5005.000000
30
0.000000
39
0.000000
0
POINT
8
_2-D_寸法
62
7
10
0.000000
20
5005.000000
30
0.000000
39
0.000000
0
POINT
8
_2-D_寸法
62
7
10
-910.000000
20
5005.000000
30
0.000000
39
0.000000
0
POINT
8
_2-D_寸法
62
7
10
2730.000000
20
5005.000000
30
0.000000
39
0.000000
0
POINT
8
_2-D_寸法
62
7
10
0.000000
20
5005.000000
30
0.000000
39
0.000000
0
POINT
8
_2-D_寸法
62
7
10
2730.000000
20
5460.000000
30
0.000000
39
0.000000
0
POINT
8
_2-D_寸法
62
7
10
-7280.000000
20
5460.000000
30
0.000000
39
0.000000
0
POINT
8
_2-D_寸法
62
7
10
-8645.000000
20
0.000000
30
0.000000
39
0.000000
0
POINT
8
_2-D_寸法
62
7
10
-8645.000000
20
-3640.000000
30
0.000000
39
0.000000
0
POINT
8
_2-D_寸法
62
7
10
-8645.000000
20
910.000000
30
0.000000
39
0.000000
0
POINT
8
_2-D_寸法
62
7
10
-8645.000000
20
0.000000
30
0.000000
39
0.000000
0
POINT
8
_2-D_寸法
62
7
10
-8645.000000
20
1820.000000
30
0.000000
39
0.000000
0
POINT
8
_2-D_寸法
62
7
10
-8645.000000
20
910.000000
30
0.000000
39
0.000000
0
POINT
8
_2-D_寸法
62
7
10
-8645.000000
20
3640.000000
30
0.000000
39
0.000000
0
POINT
8
_2-D_寸法
62
7
10
-8645.000000
20
1820.000000
30
0.000000
39
0.000000
0
POINT
8
_2-D_寸法
62
7
10
-9100.000000
20
3640.000000
30
0.000000
39
0.000000
0
POINT
8
_2-D_寸法
62
7
10
-9100.000000
20
-3640.000000
30
0.000000
39
0.000000
0
POINT
8
_2-D_寸法
62
7
10
2730.000000
20
-6188.000000
30
0.000000
39
0.000000
0
POINT
8
_2-D_寸法
62
7
10
-7280.000000
20
-6188.000000
30
0.000000
39
0.000000
0
POINT
8
_2-D_寸法
62
7
10
2730.000000
20
-5733.000000
30
0.000000
39
0.000000
0
POINT
8
_2-D_寸法
62
7
10
-910.000000
20
-5733.000000
30
0.000000
39
0.000000
0
POINT
8
_2-D_寸法
62
7
10
-910.000000
20
-5733.000000
30
0.000000
39
0.000000
0
POINT
8
_2-D_寸法
62
7
10
-4550.000000
20
-5733.000000
30
0.000000
39
0.000000
0
POINT
8
_2-D_寸法
62
7
10
-4550.000000
20
-5733.000000
30
0.000000
39
0.000000
0
POINT
8
_2-D_寸法
62
7
10
-7280.000000
20
-5733.000000
30
0.000000
39
0.000000
0
TEXT
8
_2-E_文字
62
7
39
1.000000
10
-6620.000000
20
1240.000000
30
0
40
250.000000
1
廊下
50
0.000000
7
STANDARD
0
TEXT
8
_2-E_文字
62
7
39
1.000000
10
-7075.000000
20
330.000000
30
0
40
250.000000
1
収納
50
0.000000
7
STANDARD
0
TEXT
8
_2-E_文字
62
7
39
1.000000
10
-6165.000000
20
-1945.000000
30
0
40
250.000000
1
和室
50
0.000000
7
STANDARD
0
TEXT
8
_2-E_文字
62
7
39
1.000000
10
-6365.000000
20
-2170.000000
30
0
40
200.000000
1
（6.0帖）
50
0.000000
7
STANDARD
0
TEXT
8
_2-E_文字
62
7
39
1.000000
10
-3230.000000
20
-1945.000000
30
0
40
250.000000
1
リビング
50
0.000000
7
STANDARD
0
TEXT
8
_2-E_文字
62
7
39
1.000000
10
-3180.000000
20
-2170.000000
30
0
40
200.000000
1
（8.0帖）
50
0.000000
7
STANDARD
0
TEXT
8
_2-E_文字
62
7
39
1.000000
10
-4470.000000
20
1695.000000
30
0
40
250.000000
1
Ｄ・Ｋ
50
0.000000
7
STANDARD
0
TEXT
8
_2-E_文字
62
7
39
1.000000
10
-4545.000000
20
1470.000000
30
0
40
200.000000
1
（6.0帖）
50
0.000000
7
STANDARD
0
TEXT
8
_2-E_文字
62
7
39
1.000000
10
-1615.000000
20
1240.000000
30
0
40
250.000000
1
廊下
50
0.000000
7
STANDARD
0
TEXT
8
_2-E_文字
62
7
39
1.000000
10
-6165.000000
20
57.000000
30
0
40
250.000000
1
収納
50
0.000000
7
STANDARD
0
TEXT
8
_2-E_文字
62
7
39
1.000000
10
-705.000000
20
3060.000000
30
0
40
250.000000
1
収納
50
0.000000
7
STANDARD
0
TEXT
8
_2-E_文字
62
7
39
1.000000
10
-6256.000000
20
2605.000000
30
0
40
250.000000
1
浴室
50
0.000000
7
STANDARD
0
TEXT
8
_2-E_文字
62
7
39
1.000000
10
-551.188533
20
1886.441599
30
0
40
250.000000
1
昔の店舗（空きスペース）
50
0.000000
7
STANDARD
0
TEXT
8
_2-E_文字
62
7
39
1.000000
10
-1945.811233
20
3052.163125
30
0
40
250.000000
1
トイレ
50
0.000000
7
STANDARD
0
TEXT
8
_2-E_文字
62
7
39
1.000000
10
-2478.522821
20
2334.659574
30
0
40
250.000000
1
収納
50
0.000000
7
STANDARD
0
TEXT
8
_2-E_文字
62
7
39
1.000000
10
399.069893
20
-3401.199097
30
0
40
250.000000
1
ガレージ
50
0.000000
7
STANDARD
0
TEXT
8
_2-4_雑仕上
62
4
39
1.000000
10
-2375.000000
20
680.000000
30
0
40
200.000000
1
UP
50
0.000000
7
STANDARD
0
TEXT
8
_2-4_雑仕上
62
4
39
1.000000
10
-2555.000000
20
860.000000
30
0
40
200.000000
1
 1
50
0.000000
7
STANDARD
0
TEXT
8
_2-4_雑仕上
62
4
39
1.000000
10
-2555.000000
20
1120.000000
30
0
40
200.000000
1
 2
50
0.000000
7
STANDARD
0
TEXT
8
_2-4_雑仕上
62
4
39
1.000000
10
-2555.000000
20
1380.000000
30
0
40
200.000000
1
 3
50
0.000000
7
STANDARD
0
TEXT
8
_2-4_雑仕上
62
4
39
1.000000
10
-2555.000000
20
1640.000000
30
0
40
200.000000
1
 4
50
0.000000
7
STANDARD
0
TEXT
8
_2-4_雑仕上
62
4
39
1.000000
10
-2555.000000
20
1900.000000
30
0
40
200.000000
1
 5
50
0.000000
7
STANDARD
0
TEXT
8
_2-D_寸法
62
7
39
1.000000
10
4094.750000
20
-2587.500000
30
0
40
250.000000
1
2,730
50
90.000000
7
STANDARD
0
TEXT
8
_2-D_寸法
62
7
39
1.000000
10
4094.750000
20
-642.500000
30
0
40
250.000000
1
910
50
90.000000
7
STANDARD
0
TEXT
8
_2-D_寸法
62
7
39
1.000000
10
4094.750000
20
1507.500000
30
0
40
250.000000
1
3,640
50
90.000000
7
STANDARD
0
TEXT
8
_2-D_寸法
62
7
39
1.000000
10
4549.750000
20
-312.500000
30
0
40
250.000000
1
7,280
50
90.000000
7
STANDARD
0
TEXT
8
_2-D_寸法
62
7
39
1.000000
10
-6682.500000
20
5005.250000
30
0
40
250.000000
1
1,820
50
0.000000
7
STANDARD
0
TEXT
8
_2-D_寸法
62
7
39
1.000000
10
-4407.500000
20
5005.250000
30
0
40
250.000000
1
2,730
50
0.000000
7
STANDARD
0
TEXT
8
_2-D_寸法
62
7
39
1.000000
10
-2462.500000
20
5005.250000
30
0
40
250.000000
1
910
50
0.000000
7
STANDARD
0
TEXT
8
_2-D_寸法
62
7
39
1.000000
10
-1552.500000
20
5005.250000
30
0
40
250.000000
1
910
50
0.000000
7
STANDARD
0
TEXT
8
_2-D_寸法
62
7
39
1.000000
10
-642.500000
20
5005.250000
30
0
40
250.000000
1
910
50
0.000000
7
STANDARD
0
TEXT
8
_2-D_寸法
62
7
39
1.000000
10
1052.500000
20
5005.250000
30
0
40
250.000000
1
2,730
50
0.000000
7
STANDARD
0
TEXT
8
_2-D_寸法
62
7
39
1.000000
10
-2650.000000
20
5460.250000
30
0
40
250.000000
1
10,010
50
0.000000
7
STANDARD
0
TEXT
8
_2-D_寸法
62
7
39
1.000000
10
-8645.250000
20
-2132.500000
30
0
40
250.000000
1
3,640
50
90.000000
7
STANDARD
0
TEXT
8
_2-D_寸法
62
7
39
1.000000
10
-8645.250000
20
267.500000
30
0
40
250.000000
1
910
50
90.000000
7
STANDARD
0
TEXT
8
_2-D_寸法
62
7
39
1.000000
10
-8645.250000
20
1177.500000
30
0
40
250.000000
1
910
50
90.000000
7
STANDARD
0
TEXT
8
_2-D_寸法
62
7
39
1.000000
10
-8645.250000
20
2417.500000
30
0
40
250.000000
1
1,820
50
90.000000
7
STANDARD
0
TEXT
8
_2-D_寸法
62
7
39
1.000000
10
-9100.250000
20
-312.500000
30
0
40
250.000000
1
7,280
50
90.000000
7
STANDARD
0
TEXT
8
_2-D_寸法
62
7
39
1.000000
10
-2650.000000
20
-6187.750000
30
0
40
250.000000
1
10,010
50
0.000000
7
STANDARD
0
TEXT
8
_2-D_寸法
62
7
39
1.000000
10
597.500000
20
-5732.750000
30
0
40
250.000000
1
3,640
50
0.000000
7
STANDARD
0
TEXT
8
_2-D_寸法
62
7
39
1.000000
10
-3042.500000
20
-5732.750000
30
0
40
250.000000
1
3,640
50
0.000000
7
STANDARD
0
TEXT
8
_2-D_寸法
62
7
39
1.000000
10
-6227.500000
20
-5732.750000
30
0
40
250.000000
1
2,730
50
0.000000
7
STANDARD
0
TEXT
8
_2-E_文字
62
7
39
1.000000
10
3185.000000
20
-1365.000000
30
0
40
250.000000
1
ＧＬ
50
0.000000
7
STANDARD
0
TEXT
8
_2-E_文字
62
7
39
1.000000
10
-1820.000000
20
455.000000
30
0
40
250.000000
1
＋300
50
0.000000
7
STANDARD
0
TEXT
8
_2-E_文字
62
7
39
1.000000
10
-427.642599
20
1024.000000
30
0
40
250.000000
1
＋300
50
0.000000
7
STANDARD
0
TEXT
8
_2-E_文字
62
7
39
1.000000
10
-418.704324
20
709.591352
30
0
40
250.000000
1
踏み継ぎ台
50
0.000000
7
STANDARD
0
TEXT
8
_2-E_文字
62
7
39
1.000000
10
-446.272646
20
-761.334732
30
0
40
250.000000
1
＋300
50
0.000000
7
STANDARD
0
TEXT
8
_2-E_文字
62
7
39
1.000000
10
5539.958430
20
-107.969977
30
0
40
250.000000
1
公道
50
0.000000
7
STANDARD
0
ENDSEC
0
EOF
